Song name
# A B C D E F G H I J K L M N O P Q R S T U V W X Y Z

Submersed - The Rescue tab

Song: The Rescue
Artist: Submersed
Album: Immortal Verses (2007)
Tabbed by: flaco2plyr
Drop D (Db Ab Db Gb Bb eb)

i know the song only in parts

Intro

eb|----6----5---------------------------------------------------------------|
Bb|-3----3-----3----8----6----8----6----5----3-----3----5----6~-------------|
Gb|---------------------------------------------5---------------------------|
Db|-------------------------------------------------------------------------|
Ab|-------------------------------------------------------------------------|
Db|-------------------------------------------------------------------------|

eb|--6-----5----------------------------------------------------------------|
Bb|-----3-----3----8----6----8----6----5----3-----3----6----5---------------|
Gb|--------------------------------------------5---------------5~-----------|
Db|-------------------------------------------------------------------------|
Ab|-------------------------------------------------------------------------|
Db|-------------------------------------------------------------------------|
                                                                        (x2)



eb|-------------------------------------------------------------------------|
Bb|-------------------------------------------------------------------------|
Gb|-------------------------------------------------------------------------|
Db|-12--12--12--8--8--8--7--7--7--7---7---7----8----------------------------|
Ab|-12--12--12--8--8--8--7--7--7--7---7---7----8----------------------------|
Db|-12--12--12--8--8--8--7--7--7--7---7---7----8----------------------------|



....... skip ahead to breakdown 

eb|-------------------------------------------------------------------------|
Bb|-------------------------------------------------------------------------|
Gb|-------------------------------------------------------------------------|
Db|-0--0--0--0--0--0--0--0--2--2--2--2--2--2--2--2--3--3--3--3--3--3--3--3--|
Ab|-------------------------------------------------------------------------|
Db|-------------------------------------------------------------------------|

eb|-------------------------------------------------------------------------|
Bb|-------------------------------------------------------------------------|
Gb|-------------------------------------------------------------------------|
Db|-3--2--2--2--2--3--3--3--7--7--7--7--7--7--7--7--7--5--5--5--5--5--5--5--|
Ab|-------------------------------------------------------------------------|
Db|-------------------------------------------------------------------------|

eb|-------------------------------------------------------------------------|
Bb|-------------------------------------------------------------------------|
Gb|-------------------------------------------------------------------------|
Db|-5--3--3--3--3--3--3--3--5--5--3--3------2--2----------------------------|
Ab|------------------------------------3--3---------------------------------|
Db|-------------------------------------------------------------------------|
                                                                        (x2)



eb|-------------------------------------------------------------------------|
Bb|-------------------------------------------------------------------------|
Gb|-------------------------------------------------------------------------|
Db|-0--0--0--0--0--0--0--0--2--2--2--2--2--2--2--2--3--3--3--3--3--3--3--3--|
Ab|-------------------------------------------------------------------------|
Db|-------------------------------------------------------------------------|

eb|-------------------------------------------------------------------------|
Bb|-------------------------------------------------------------------------|
Gb|-------------------------------------------------------------------------|
Db|-3--2--2--2--2--3--3--3--7--7--7--7--7--7--7--7--7--5--5--5--5--5--5--5--|
Ab|-------------------------------------------------------------------------|
Db|-------------------------------------------------------------------------|

eb|-----------------------------------------------8-------------------------|
Bb|--------------------------------5h6-5-----5-h6---------------------------|
Gb|-------------------------------------7-----------------------------------|
Db|-5-------5-------------------------------------------0--2--3-------------|
Ab|-------------------------------------------------------------------------|
Db|--------------------15\--------------------------------------------------|

eb|-------------------------------------------------8-----------------------|
Bb|-5h6-5------3h5-3-----------------5h6-5-----5-h6-------------------------|
Gb|------7----------5---------------------7---------------------------------|
Db|----------------------0--2--3-------------------------0--2--3------------|
Ab|-------------------------------------------------------------------------|
Db|-------------------------------------------------------------------------|

eb|-------------------------------------------------------------------------|
Bb|-5h6-5------10-11-10-11-10-8-10-8--8-------------------------------------|
Gb|------7--------------------------10--10-9--------------------------------|
Db|-------------------------------------------------------------------------|
Ab|-------------------------------------------------------------------------|
Db|-------------------------------------------------------------------------|

eb|-----------------------------------------------8-------------------------|
Bb|--------------------------------5h6-5-----5-h6---------------------------|
Gb|-------------------------------------7-----------------------------------|
Db|-----------------------------------------------------0--2--3-------------|
Ab|-------------------------------------------------------------------------|
Db|-------------------------------------------------------------------------|

eb|-------------------------------------------------8-----------------------|
Bb|-5h6-5------3h5-3-----------------5h6-5-----5-h6-------------------------|
Gb|------7----------5---------------------7---------------------------------|
Db|----------------------0--2--3-------------------------0--2--3------------|
Ab|-------------------------------------------------------------------------|
Db|-------------------------------------------------------------------------|

eb|-------------------------------------------------------------------------|
Bb|-5h6-5------10-11-10-11-10-8-10-8--8-------------------------------------|
Gb|------7--------------------------10--10-9--------------------------------|
Db|-------------------------------------------------------------------------|
Ab|-------------------------------------------------------------------------|
Db|-------------------------------------------------------------------------|


| /   slide up
| \   slide down
| h   hammer-on
| p   pull-off
| ~   vibrato
| +   harmonic
| x   Mute note
| b   Bend
| pb  Pre-bend
| br  Bend release
| pbr Pre-bend release
| brb Bend release bend
Tap to rate this tab
 
# A B C D E F G H I J K L M N O P Q R S T U V W X Y Z