Song name
# A B C D E F G H I J K L M N O P Q R S T U V W X Y Z

Submersed - Hollow tab

Song: Hollow
Band: Submersed
Album: In Due Time

Tuning: Drop Db/C#

INTRO (clean):

eb|-------------------------------------------------|
Bb|-------------------------------------------------|
Gb|-2-------2------------5----------------7---------|
Db|---3-------3------------3-----3----------5-------|
Ab|-----5-------5-----3-------3--------5------------|
Db|-----------------3----------------5--------------|

eb|--------------------------------------------------|
Bb|--------------------------------------------------|
Gb|-2-------2--------------5---------------7---------|
Db|---3-------3---3/5--------3---3-----------5---5---|
Ab|-----5-------5--------3-----3--------5------5-----|
Db|--------------------3--------------5--------------| 

eb|-------------------------------------------------|
Bb|-------------------------------------------------|
Gb|-2-------2------------5----------------7---------|
Db|---3-------3------------3-----3----------5-------|
Ab|-----5-------5-----3-------3--------5------------|
Db|-----------------3----------------5--------------|

eb|--------------------------------------|
Bb|--------------------------------------|
Gb|-2-------2--------------5----------7--|
Db|---3-------3---3/5--------3---3----5--|
Ab|-----5-------5--------3-----3------5--|
Db|--------------------3--------------5--| 


VERSE (distortion):

eb|---------------------------------------|
Bb|---------------------------------------|
Gb|---------------------------------------|
Db|---------------------------------------|
Ab|-------------5-------------3----3h5----|
Db|--0-0-0-0-00----3-3-3-3-33---33--------|

eb|-------------------------------------------------------------------|
Bb|-------------------------------------------------------------------|
Gb|-------------------------------------------------------------------|
Db|----------------------------2h3p2p0--------------------------7-----|
Ab|-------------5----------------------5p0h5/7-------------5/7--------|
Db|--0-0-0-0-00----3-3-3-3-33-------------------0-0-0-0-00------------|

eb|-------------------------------|
Bb|-------------------------------|
Gb|-------------------------------|
Db|-------------------------------|
Ab|-------------5-------------3---|
Db|--0-0-0-0-00----3-3-3-3-33-----|

eb|----------------------------------------|
Bb|----------------------------------------|
Gb|-------------2-------------5-----5/7----|
Db|-------------3-------------5-----5/7----|
Ab|-------------5-------------3-----3/5----|
Db|--0-0-0-0-00----3-3-3-3-33----33--------|

eb|---------------------------------------------------------------|
Bb|---------------------------------------------------------------|
Gb|-------------2-------------------------------------------------|
Db|-------------3-------------2h3p2p0--------------------------7--|
Ab|-------------5---------------------5p0h5/7-------------5/7-----|
Db|--0-0-0-0-00----3-3-3-3-33------------------0-0-0-0-00---------|

eb|-------------------------------------------------------------|
Bb|-------------------------------------------------------------|
Gb|-------------5----5/7-------------2-------------5----5/7-----|
Db|-------------5----5/7-------------3-------------5----5/7-----|
Ab|-------------3----3/5-------------5-------------3----3/5-----|
Db|--3-3-3-3-33---00------0-0-0-0-00----3-3-3-3-33---00---------|


CHORUS (distortion):

eb|----------------------------------------------------|
Bb|-3-33-3-3------------7-77-7-7--8-88-8-8-------------|
Gb|-2-22-2-2--5-55-5-5--5-55-5-5--7-77-7-7------5h7----|
Db|-0-00-0-0--5-33-3-3--3-33-3-3--5-55-5-5--5h7--------|
Ab|-0-00-0-0--3-33-3-3--3-33-3-3--5-55-5-5-------------|
Db|---------------------3-33-3-3--5-55-5-5-------------|

eb|----------------------------------------------------|
Bb|-3-33-3-3------------7-77-7-7--8-88-8-8-------------|
Gb|-2-22-2-2--5-55-5-5--5-55-5-5--7-77-7-7-------------|
Db|-0-00-0-0--5-33-3-3--3-33-3-3--5-55-5-5-------------|
Ab|-0-00-0-0--3-33-3-3--3-33-3-3--5-55-5-5-------------|
Db|---------------------3-33-3-3--5-55-5-5-------------|


VERSE:

guitar 1 repeats the clean intro
guitar 2 repeats the distorted verse

VERSE (part 2):

guitar 1:
eb|------------------------------------------------------|
Bb|------------------------------------------------------|
Gb|--7-77-7--10-1010-10--5555------7777--10101010--5555--|
Db|--x-xx-x--x--x-x--x---xxxx------xxxx--x-x-x-x---xxxx--|
Ab|--5-55-5--8--8-8--8---3333------5555--8-8-8-8---3333--|
Db|------------------------------------------------------|

guitar 2:
eb|-------------------------------------------------|
Bb|------------------------------------7777--8888---|
Gb|------------------------------------5555--7777---|
Db|------------------------------------3333--5555---|
Ab|-----10p8---8p7---7p5---5p3----3h5--3333--5555---|
Db|--00------0-----0-----0-----00------3333--5555---| X2

then both guitars play:
eb|-------------------------------------------------|
Bb|------------------------------------7777--8888---|
Gb|------------------------------------5555--7777---|
Db|------------------------------------3333--5555---|
Ab|-----10p8---8p7---7p5---5p3----3h5--3333--5555---|
Db|--00------0-----0-----0-----00------3333--5555---| X2


REPEAT CHORUS X2:

MIDDLE 8 PART:
eb|---------------------------------------------------|
Bb|---------------------------------------------------|
Gb|---------------------------------------------------|
Db|-----55-77----1010-88----88-77----77-55----5-5/7---|
Ab|---------------------------------------------------|
Db|--00-------00---------00-------00-------00---------|

eb|--------------------------------------------------------------|
Bb|--------------------------------------------------------------|
Gb|----------------------------------------10p8p7-10p8p7--12p10--|
Db|-----55-77----1010-88----88-77----77-55-----------------------|
Ab|--------------------------------------------------------------|
Db|--00-------00---------00-------00-----------------------------|

eb|-----------------------------------------------------------------------|
Bb|-----------------------------------------------------------------------|
Gb|-----------------------------------------------------------------------|
Db|-----55-77----1010-88----88-77----77-55----5-5/7--222222-333333-555555-|
Ab|--------------------------------------------------222222-333333-555555-|
Db|--00-------00---------00-------00-------00--------222222-333333-555555-|


"You can make me..."
eb|--------------------------------------------------------------------|
Bb|--------------------------------------------------------------------|
Gb|-----5555--7777-5555-7777------------------5555-5555-7777------5h7--|
Db|-----5555--5555-3333-5555------------------5555-3333-5555--5h7------|
Ab|-----3333--5555-3333-5555------------------3333-3333-5555-----------|
Db|--0--------5555-3333-5555--0/15\0---0---0-------3333-5555-----------|


CHORUS:
eb|-----------------------------------------------------|
Bb|--3-33-3----------7-77-7--8-88-8---------------------|
Gb|--2-22-2--5-55-5--5-55-5--7-77-7----8h10p7--7h8p5----|
Db|--0-00-0--5-55-5--3-33-3--5-55-5------------------7--|
Ab|--0-00-0--3-33-3--3-33-3--5-55-5---------------------|
Db|------------------3-33-3--5-55-5---------------------|

eb|------------------------------------|
Bb|--3-33-3----------7-77-7--8-88-8----|
Gb|--2-22-2--5-55-5--5-55-5--7-77-7----|
Db|--0-00-0--5-55-5--3-33-3--5-55-5----|
Ab|--0-00-0--3-33-3--3-33-3--5-55-5----|
Db|------------------3-33-3--5-55-5----|

eb|-----------------------------------------------|
Bb|-----------------------------------------------|
Gb|----------------------------------5555-7777----|
Db|----------------------------------3333-5555----|
Ab|-----7h8---7h8---7h8---7h8---7h8--3333-5555----|
Db|--00-----0-----0-----0-----0------3333-5555----| X3

eb|------------------------------------------------------------------------|
Bb|------------------------------------------------------------------------|
Gb|------------------------------------------------------------------------|
Db|------------------------------------------------------------------------|
Ab|-----7h8---7h8---7h8---7h8---7h8---8888-10101010-12121212-15151515------|
Db|--00-----0-----0-----0-----0-----0----------------------------------0-0-|
Tap to rate this tab
 
# A B C D E F G H I J K L M N O P Q R S T U V W X Y Z