Submission Red - Good Enough tab

http://www.facebook.com/submissionred (their Facebook page)

Dropped C tuning. It's just the intro but should help you get started if you wish 
to learn the rest. I should also have the Guitar Pro version up . . . later I guess

     E.  S E.  S S  S S E  E  S    E  E  E  E  S S S S S S S S  
D||-----------------------------|------------------------------|
A||-----------------------------|------------------------------|
F||--------9---7-9-10-9-7-------|----------------------7-------|
C||--0---0-----------------7--L-|--8--L--L--L--L-L-7-8---8-7-8-|
G||--0---0----------------------|------------------------------|
C||--0---0----------------------|------------------------------|
 
 
    E.  S E.  S S  S S E  E  S    E  E  E  E  S S S S S S S S  3x       
|------------------------------|--------------------------------||-----|
|------------------------------|--------------------------------||-----|
|*--------9---7-9-10-9-7-------|----------------------7-------*-||*----|
|*--0---0-----------------7--L-|--8--L--L--L--L-L-7-8---8-7-8-*-||*----|
|---0---0----------------------|--------------------------------||-----|
|---0---0----------------------|--------------------------------||-----|
 
 
  Q    Q    S S S  S   S  S  S   S      
--------------------------------------||
--------------------------------------||
------------------(x)-(x)---(x)-(x)-*-||
------------------(x)-(x)---(x)-(x)-*-||
------------------(x)-(x)---(x)-(x)---||
------------------(0)-(0)---(0)-(0)---||
 
 
   E.  S  E.    S   S    S   S   E    E   S  
--------------------------------------------|
--------------------------------------------|
*--------(9)---(7)-(9)-(10)-(9)-(7)---------|
*------------------------------------(7)--L-|
--------------------------------------------|
--------------------------------------------|
 
 
   E   E  E  E  S S S S S S S S         W                  
----------------------------------||----------------------|
----------------------------------||----------------------|
--------------------------------*-||--(10)----------------|
--(8)--L--L--L------------------*-||----------------------|
----------------------------------||----------------------|
----------------------------------||----------------------|
 
 
     PH                                                       
     W                      E  E   S  S  S  S  E  E  S S S S  
-----------------------||------------------------------------|
-----------------------||------------------------------------|
--<>12~----------------||*--------10-10-10-10-10-----9-9-9-9-|
-----------------------||*--0--0-----------------------------|
-----------------------||---0--0---8--8--8--8--8--0--7-7-7-7-|
-----------------------||---0--0------------------0----------|
 
 
  E  E   S  S  S  S  E  E   S  S  S  S    S S S S S S S S S S S S S S S S  
---------------------------------------|----------------------------------|
---------------------------------------|----------------------------------|
--------12-12-12-12-12-----12-12-12-12-|----------------------------------|
--0--0---------------------------------|--8-8-8-8-8-8-8-8-8-8-8-8-8-8-8-8-|
--0--0--10-10-10-10-10--0--10-10-10-10-|--8-8-8-8-8-8-8-8-8-8-8-8-8-8-8-8-|
--0--0------------------0--------------|--8-8-8-8-8-8-8-8-8-8-8-8-8-8-8-8-|
 
 
   S  S  S  S  S  S  S  S  S  S  S  S  S  S  S  S     
----------------------------------------------------||
----------------------------------------------------||
--------------------------------------------------*-||
--10-10-10-10-10-10-10-10-10-10-10-10-10-10-10-10-*-||
--10-10-10-10-10-10-10-10-10-10-10-10-10-10-10-10---||
--10-10-10-10-10-10-10-10-10-10-10-10-10-10-10-10---||
 
 
  E.  S E.  S S  S S E  E  S    E  E  E  E  S S S S S S S S  
-----------------------------|------------------------------|
-----------------------------|------------------------------|
--------9---7-9-10-9-7-------|----------------------7-------|
--0---0-----------------7--L-|--8--L--L--L--L-L-7-8---8-7-8-|
--0---0----------------------|------------------------------|
--0---0----------------------|------------------------------|
 
 
  E.  S E.  S S  S S E  E  S    E  E  E  E  S S S S S S S S   
-----------------------------|------------------------------||
-----------------------------|------------------------------||
--------9---7-9-10-9-7-------|----------------------7-9-7-L-||
--0---0-----------------7--L-|--8--L--L--L--L-L-7-8---------||
--0---0----------------------|------------------------------||
--0---0----------------------|------------------------------||
 
 
 
 
Duration Legend
---------------
W - whole
H - half
Q - quarter
E - 8th
S - 16th
T - 32nd
X - 64th
. - note dotted
|-n-|  - n-tuplets
 
 
Tablature Legend
----------------
L - tied note
x - dead note
g - grace note
(n) - ghost note
> - accentuded note
NH - natural harmonic
AH - artificial harmonic
TH - tapped harmonic
SH - semi harmonic
PH - pitch harmonic
h - hammer on
p - pull off
b - bend
br - bendRelease
pb - preBend
pbr - preBendRelease
brb - bendReleaseBend
\n/ - tremolo bar dip
\n - tremolo bar dive
-/n - tremolo bar Release up
/n\ - tremolo bar inverted dip
/n - tremolo bar return
-\n - tremolo bar Release down
S - shift slide
s - legato slide
/ -  slide into from below or out of upwards
\ -  slide into from above or out of downwards
~ - vibrato
W - wide vibrato
tr - tril'
TP - tremolo picking
T - tapping
S - slap
P - pop
< - fade in
^ - brush up
v - brush down
Tap to rate this tab
 
# A B C D E F G H I J K L M N O P Q R S T U V W X Y Z