Song name
# A B C D E F G H I J K L M N O P Q R S T U V W X Y Z

Subseven - Ill Fly Away tab

-------------------------------------------------------------------------------
			     I'll Fly Away - Subseven
-------------------------------------------------------------------------------
Tabbed by:neverspoiled  (Zack Fink)
Email:own_crowd@yahoo.com

Tuning:Standard

(Intro and Verse)
e|---------------------------------------------------------------------------|
B|---------------------------------------------------------------------------|
G|-------------------4-------------------------------------4-----------------|
D|---------7-------------7--------7--------------7-----------7-------7-------|
A|-------------5--------------5---------------------5-----------5------------|
E|--3-3-----------------------------------3-3--------------------------------|

e|---------------------------------------------------------------------------|
B|---------------------------------------------------------------------------|
G|---------------------0----------------------------------0------------------|
D|----------4--------------4------4---------------4----------4------4--------|
A|---2-2-------2--------------2----------2-2--------2-----------2------------|
E|---------------------------------------------------------------------------|

e|---------------------------------------------------------------------------|
B|-----------5--------------------------------7------------------------------|
G|---------------5-------------------------------7---------------------------|
D|-------------------5-------5----------------------7------7-----------------|
A|---3-3-----------------3-----------5-5---------------5---------------------|
E|---------------------------------------------------------------------------|

e|---------------------------------------------------------------------------|  
B|---------------------------------------------------------------------------| 
G|-----------------4-------------------------------4-------------------------| 
D|---------7----------7------7------------7----------7----7------------------| 
A|-------------5----------5-------------------5---------5--------------------|    
E|--3-3----------------------------3-3---------------------------------------|  


(Chorus) (# of strums isn't exact)
e|---------------------------------------------------------|
B|---------------------------------------------------------|
G|---------------------------------------------------------|
D|------5-5-5-5-5-5-5-5-5-5-5-5---2-2-2-2-2-2-2-2-2-2-2-2--|
A|------5-5-5-5-5-5-5-5-5-5-5-5---2-2-2-2-2-2-2-2-2-2-2-2--|
E|------3-3-3-3-3-3-3-3-3-3-3-3---0-0-0-0-0-0-0-0-0-0-0-0--|

e|----------------------------------------------------------------|
B|----------------------------------------------------------------|
G|---5-5-5-5-5-5-5--------7-7-7-7-7-7-7---------------------------|
D|---5-5-5-5-5-5-5--------7-7-7-7-7-7-7-----5-5-5-5-5-5-5-5-------|
A|---3-3-3-3-3-3-3--------5-5-5-5-5-5-5-----5-5-5-5-5-5-5-5-------|
E| -----------------------------------------3-3-3-3-3-3-3-3-------| 
(Repeat as necessary)


Breakdown Thingy
e|-----------------------------------------------------------|
B|-----------------------------------------------------------|
G|--5-5-5-5-5-5-5-5-5----------------------------------------|
D|--5-5-5-5-5-5-5-5-5----4-4------5-5-5-5-5-5-5-5-5-5-5------|
A|--3-3-3-3-3-3-3-3-3----4-4------5-5-5-5-5-5-5-5-5-5-5------|
E|-----------------------2-2------3-3-3-3-3-3-3-3-3-3-3------|

e|------------------------------------------------------------------|
B|------------------------------------------------------------------|
G|--------------------------------7-7-7-7-7-7-7-7-7-7-7-7-----------|
D|--7-7-7-7-7-7-7-7-7-7-7-7-------7-7-7-7-7-7-7-7-7-7-7-7-----------|
A|--7-7-7-7-7-7-7-7-7-7-7-7-------5-5-5-5-5-5-5-5-5-5-5-5-----------|
E|--5-5-5-5-5-5-5-5-5-5-5-5-----------------------------------------|


(Outro same as Intro, it just slows down. Song ends on G power chord)


| /  slide up
| \  slide down
| h  hammer-on
| p  pull-off
| ~  vibrato
| +  harmonic
| x  Mute note
===============================================================================
Tap to rate this tab
# A B C D E F G H I J K L M N O P Q R S T U V W X Y Z