Song name
# A B C D E F G H I J K L M N O P Q R S T U V W X Y Z

Subseven - Faded Letters tab

Help us improve GuitareTab! Take a short survey!
Subseven:Faded Letters
Album: Subseven:The EP
C  2004 Flicker Records

Drop D tunning
1o= 10

OK this tab is based on one from the one by another tabist, but with my
Thoughts on some of the sections.

I've also added lyrics to help too.


Intro ( piano part)

--------------

Verse
Guitars 1 (0:24)
|-7-7-7-|
|-7-7-7-|
|-x-x-x-| x8
|-------|
|-------|
|-------|
                  (you can play both parts together
Guitars 2 (0:24)        but  it's a strech!)
|(7-7-7)|
|(7-7-7)|
|-5-5-5-| x8
|-5-5-5-|
|-3-3-3-|
|-------|


(0:39) I look through photographs and..
|------------------------------------|
|------------------------------------|
|------------------------------------|
|-5-5-5-5--2-2-2-2--5-5-5-5--2-2-2-2-| NOTE: the chord could be -4-
|-3-3-3-3--2-2-2-2--3-3-3-3--2-2-2-2-|                          -3-
|-5-5-5-5--2-2-2-2--5-5-5-5--2-2-2-2-|              (u decide)  -5-

Guitar 1

(0:47) Falling, away....
|---------------------------------------------|
|-12.12.12.12.11.12.12.12.12------------------|
|-12.12.12.12.11.12.12.12.12------------------|
|-10.10.10.10.09.10.10.10.10--2-2-2--22-2-2-2-|
|-10.10.10.10.09.10.10.10.10--2-2-2--22-2-2-2-|
|-10.10.10.10.09.10.10.10.10--2-2-2--22-2-2-2-|

Guitar 2

(0:47)     *|-------------------| skip this on repeat
|-------------------------------|
|-------------------------------|
|-------------------------------|
|-555545554--2-2-2---22-2-2-2---|
|-333323332--2-2-2---22-2-2-2---|
|-555545554--2-2-2---22-2-2-2---|


The section above is repeated, but at the end instead of P.M> the
fret 2 chords, the them ring. and guitars at 1:06 plays this:


Prechorus
Both Guitars
(1:06) This place.....
|-------------------------------------------|
|-------------------------------------------|
|----------------2~2~2-5~X------------------|
|----4~2~~~------2~2~2-5~X------------------|
|---2~~~~~~------0~0~0-3~X------------------|
|--2~~~~~~~------XXXXX----------------------|

(~~ =let ring) listen to song...u'll get it


Chorus
Both Gutars
(1:14) go....!!!!
|-------------------------------------------|
|-------------------------------------------|
|-------------------------------------------| x2
|-22222222555555557777777771o1o1o1o1o1o1o1o-|
|-22222222555555557777777771o1o1o1o1o1o1o1o-|
|-22222222555555557777777771o1o1o1o1o1o1o1o-|

Verse
Both Guitars--same as before but shorter
(1:29) Sometimes I hide....
|------------------------------------|
|------------------------------------|
|------------------------------------|
|-5-5-5-5--2-2-2-2--5-5-5-5--2-2-2-2-|
|-3-3-3-3--2-2-2-2--3-3-3-3--2-2-2-2-|
|-5-5-5-5--2-2-2-2--5-5-5-5--2-2-2-2-|

(1:37) I feel you....
|---------------------------------------------|
|---------------------------------------------|
|----------77777777-22222222-555555555--(5~)--|  X2 second time let ring
|-55555555-77777777-22222222-555555555--(5~)--|
|-55555555-55555555-00000000-333333333--(3~)--|
|-55555555-XXXXXXXX-XXXXXXXX-XXXXXXXXX--(X~)--|

Bridge
Guitar 1-Clean
(palm muted)
(1:52)
|-------------------------------------|
|-------------------------------------|
|-------------------------------------|
|-55555555999999995555555599999999-5~-|
|-33333333777777773333333377777777-5~-|
|----------------------------------5~-|

Guitar 2
(with tremelo effect)
(1:52) (not sure bout this)               (*distortion 2nd time last)

|------14~-------14-----15~14-----15~14~----------|
|-13~15-----13~15-----12~-------12~---------------|
|-12~-------12~-------12~-------12~---------------| X2
|--------------------------------------------(5~)-|
|--------------------------------------------(5~)-|
|--------------------------------------------(5~)-|

Guitar 1
(2:07)
|-------------------------------------------|
|-------------------------------------------|
|-------------------------------------------| x2
|-7777777771o1o1o1o1o1o1o1o2222222255555555-|
|-7777777771o1o1o1o1o1o1o1o2222222255555555-|
|-7777777771o1o1o1o1o1o1o1o2222222255555555-|

Guitar 2
(solo)
(2:07) (lots of vibrato)
|-----------------------------------------|
|-13~-12-1o--13~-12-10--------------------|
|-XX--XX-XX--XX--XX-XX---12~-11-9---7-5-4-| x2
|-10~--9--7--10~--9--7---XX--XX-X---X-X-X-|
|------------------------10~--9-7---5-3-2-|
|-----------------------------------------|

Prechorus
Both Guitars
(2:22)
|---------------------------|
|---------------------------|
|---------------------------|
|-7777777771o1o1o1o1o1o1o1o-|
|-7777777771o1o1o1o1o1o1o1o-|
|-7777777771o1o1o1o1o1o1o1o-|

Chorus
Both Guitars
(2:26)
|----------------------------------------------------------|
|----------------------------------------------------------|
|----------------------------------------------------------|
|-2222222255555555-77777--1o1o1o1o1o1o1o1o2222222255555555-|
|-2222222255555555-77777--1o1o1o1o1o1o1o1o2222222255555555-|
|-2222222255555555-77777--1o1o1o1o1o1o1o1o2222222255555555-|
                   .....PM


(2:37)
|-------------------------------------------------------------------|
|-------------------------------------------------------------------|
|-------------------------------------------------------------------|
|-7777777771o1o1o1o1o1o1o1o2222222255555555777777771o1o1o1o1o1o1o1o-|
|-7777777771o1o1o1o1o1o1o1o2222222255555555777777771o1o1o1o1o1o1o1o-|
|-7777777771o1o1o1o1o1o1o1o2222222255555555777777771o1o1o1o1o1o1o1o-|

(2:48)
|--------|
|--------|
|--------|
|-2~--5~-|
|-2~--5~-|
|-2~--5~-|

Outro
Guitar 1
(some piano composed to guitar, play with acoustic)
(2:52)
|-----3-----3---8-1o---8-1o---8-1o---8-1o----|
|---0-----0-------------------------------0~-|
|--------------------------------------------|
|-------2--------------------------2---------|
|-3-----------2-------------3----------------|
|--------------------2--------------------2~-|

Email me at alex-zander-@hotmail.co.uk

Enjoy :)

I only discovered this bad about 2 weeks ago, and I was gutted when I found out they 
support the bring back subseven group!!! WHoooo!!!!
Related for Faded Letters tab