Song name
# A B C D E F G H I J K L M N O P Q R S T U V W X Y Z

Subsonica - Up Patrios To Arms tab

                          Up patrios to arms  - Subsonica e Franco Battiato

Tabbed by: monta_94
Email: monta_94@hotmail.it

Tuning:EADGBe

Intro:      B   B     C  C  C  C    B                     G
e|----------7---7-----8--8--8--8----7---------------------3-------------------|
B|----------7---7-----8--8--8--8----7---------------------3-------------------|
G|----------8---8-----9--9--9--9----8--(x 24)-------------4-------------------|
D|----------9---9----10-10-10-10----9---------------------5-------------------|
A|----------9---9----10-10-10-10----9---------------------5-------------------|
E|----------7---7-----8--8--8--8----7---------------------3-------------------|

Chorus:
      G    A    B
e|----3----5----7------------------------------------------------------------|
B|----3----5----7------------------------------------------------------------|
G|----4----6----8------------------------------------------------------------|
D|----5----7----9------------------------------------------------------------|
A|----5----7----9------------------------------------------------------------|
E|----3----5----7------------------------------------------------------------|

Chorus(fine canzone)
       A    B   C#
e|-----5----7----9------------------------------------------------------------|
B|-----5----7----9------------------------------------------------------------|
G|-----6----8---10------------------------------------------------------------|
D|-----7----9---11------------------------------------------------------------|
A|-----7----9---11------------------------------------------------------------|
E|-----5----7----9------------------------------------------------------------|
Tap to rate this tab
 
# A B C D E F G H I J K L M N O P Q R S T U V W X Y Z