Song name
# A B C D E F G H I J K L M N O P Q R S T U V W X Y Z

Subsonica - Lodore tab

L’odore –Subsonica

by ste^seattle


Riff 1
e |-------------10-----|  |--------------------|
B |-----------------10-|  |--------------------|
G |--14/10--12---------|  |--------------------|
D |--------------------|x3|--12-12-10-12-14/10-|x1
A |--------------------|  |--------------------|
E |--------------------|  |--------------------|

Riff 2
e |--------------------|  |---------------------|
B |--------------------|  |---------------------|
G |--------------------|  |--11--11^------------|
D |--------------7--9--|x3|--9---9^--7-7-7—-9-9-|x1
A |--8--7--5--8--------|  |---------------------|
E |--------------------|  |---------------------|

Rit.
e |--------------|--------------|--------------|--------------|
B |--------------|--------------|--------------|--------------|
G |--------------|--------------|--------------|--------------|
D |--5--5--5--5--|--8--8--8--8--|--7--7--7--7--|--5—-5—-5--5--|
A |--5--5--5--5--|--8--8--8--8--|--7--7--7--7--|--5--5—-5--5--|
E |--3--3--3--3--|--6--6--6--6--|--5--5--5--5--|--3--3--3—-3--| x4

Riff 1

Riff 3
e |--------------------------|            
B |-13^15-13^15-13^15-13^15--|           
G |--------------------------|           
D |--------------------------|        
A |--------------------------|          
E |--------------------------|   

Rit. arpeggiato

Rit. x8      


Sosteniamo e diffondiamo i subsonica, sono un patrimonio del rock italiano!
Tap to rate this tab
# A B C D E F G H I J K L M N O P Q R S T U V W X Y Z