Song name
# A B C D E F G H I J K L M N O P Q R S T U V W X Y Z

Suburban Rhythm - Lust tab

Artist: Suburban Rhythm
Title: Lust
Album: Suburban Rhythm (1997)

http://www.myspace.com/suburbanrhythmfans - Official band MySpace

Suburban Rhythm were a Californian ska-punk band in the early 1990s. They had a large 
following within their home state but the band broke up before they experienced any 
international success.

They were the subject of Reel Big Fish's song 'S.R.'

I couldn't find any Suburban Rhythm tabs online, so I made this one myself.

The song is played in standard tuning.

Bass
G|-----------------------------------|
D|-----------------------------------|
A|-------------2--0--2-3---2--0-2--0-|
E|--3--2-0--3------------------------|

G|-----------------------------------|
D|-----------------------------------|
A|-------------2--0--2-3---5--3-2--0-|
E|--3--2-0--3------------------------|


Main Verse Riff (Slow ska rhythm)
e|--7---8---7-----|
B|--8---8---7-----|
G|--7---9---8-----|
D|------10--9-----|
A|----------------|
E|----------------|
   Just these three chords, the rhythm is pretty easy to figure out


End of verse
e|--7-7--7--7--7---8--8--8---7--7--7--|
B|--8-8--8--8--8---8--8--8---8--8--8--|
G|--7-7--7--7--7---9--9--9---8--8--8--|
D|-----------------10-10-10--9--9--9--|x3
A|-----------------10-10-10--9--9--9--|
E|-----------------8--8--8---7--7--7--|
    How do you    feeeeee-eee-eeeeel


e|--7-------------|
B|--8\------------|
G|--7-------------|
D|----------------|
A|----------------|
E|----------------|
  "It's this feeling called lust"

Chorus is the same as the verse, but here's the tab for the horn/keyboard section:
e|-----------------------------------------------------------------|
B|--5-5-----5-5----------------------------------------------------|
G|------4-4-----4----4--4-5--5--5h7p5-4--4--4-2--2-2h4p2-0-0-0h2p0-|
D|-----------------------------------------------------------------|
A|-----------------------------------------------------------------|
E|-----------------------------------------------------------------|

e|--------------|
B|--------------|
G|------------4-|
D|-4--4-4h5h7---|
A|--------------|
E|--------------|

e|-----------------------------------------------------------------|
B|--5-5-----5-5----------------------------------------------------|
G|------4-4-----4----4--4-5--5--5h7p5-4--4--4-2--2-2h4p2-0-0-0h2p0-|
D|-----------------------------------------------------------------|
A|-----------------------------------------------------------------|
E|-----------------------------------------------------------------|

e|--------------|
B|--------------|
G|--------------|
D|-4--4-4h5p4-2-|
A|--------------|
E|--------------|


Fill after first chorus (palm muted):
e|--------------------12-------|
B|----------------------12--12-|
G|------------------------12---|
D|--9-9-9-9---9-9-9-9----------|
A|-----------------------------|
E|-----------------------------|
  [___________________________]

Outro
e|--------------------------------------------------------------------------|
B|--------------------------------------------------------------------------|
G|-----------------------------------------------------------------4-4-4-4--|
D|--2--5--9--7--9-10--10-10-9--9-9---7-7-7-7---5-5-5-5---4-4-4-4---4-4-4-4--|
A|--2--5--9--7--9-10--10-10-9--9-9---7-7-7-7---5-5-5-5---4-4-4-4---2-2-2-2--|
E|--0--3--7--5--7-8---8--8--7--7-7---5-5-5-5---3-3-3-3---2-2-2-2------------|
                                    [_____]   [_____]   [_____]   [_____]

e|------------------------------------------------------------------------|
B|------------------------------------------------------------------------|
G|------------------------------------------------------------------------|
D|--2--5--9--7--9-10--10-10-9--9-9---7-7-7-7---5-5-5-5---4-4-4-4--2-------|
A|--2--5--9--7--9-10--10-10-9--9-9---7-7-7-7---5-5-5-5---4-4-4-4--2-------|
E|--0--3--7--5--7-8---8--8--7--7-7---5-5-5-5---3-3-3-3---2-2-2-2--0-------|
                                    [_____]   [_____]   [_____]


************************************

| /    slide up
| \    slide down
| h    hammer-on
| p    pull-off
| x    Mute note
| [__] Palm Mute

************************************
Tap to rate this tab
# A B C D E F G H I J K L M N O P Q R S T U V W X Y Z