Song name
# A B C D E F G H I J K L M N O P Q R S T U V W X Y Z

Suburban Tribe - Silent Rain tab

Suburban Tribe - Silent Rain - Manimal - Tuning : C#G#C#F#A#D#

Intro
D#--------------------------------------------------------------------------|
A#--------------------------------------------------------------------------|
F#--------------------------------------------------------------------------|
C#-333-333-33-3-222-222-22-2------------------------------------------------|
G#-000-000-00-0-000-000-00-0------------------------------------------------|
C#--------------------------------------------------------------------------|

D#--------------------------------------------------------------------------|
A#-10-12-13--10-12-13-10-12-------------------------------------------------|
F#--------------------------------------------------------------------------|
C#--------------------------------------------------------------------------|
G#--------------------------------------------------------------------------|
C#--------------------------------------------------------------------------|

D#--------------------------------------------------------------------------|
A#--------------------------------------------------------------------------|
F#--------------------------------------------------------------------------|
C#-777-777-77----555-555-55----333-33-000-0---------------------------------|
G#-777-777-77----555-555-55----333-33-000-0---------------------------------|
C#-777-777-77-7b-555-555-55-5b-333-33-000-0---------------------------------|
                                      xxx
D#--------------------------------------------------------------------------|
A#--------------------------------------------------------------------------|
F#--------------------------------------------------------------------------|
C#-777-777-77----555-555-55----333-33-000-0---------------------------------|
G#-777-777-77----555-555-55----333-33-000-0---------------------------------|
C#-777-777-77-7b-555-555-55-5b-333-33-000-0---------------------------------|
   xxx xxx xx    xxx xxx xx    xxx xx xxx

Chorus
D#-------------------------------------------------------------------------|
A#-------------------------------------------------------------------------|
F#-------------------------------------------------------------------------|
C#-3-3333333-0-0000000-8-8888888-77777777----------------------------------|
G#-3-3333333-0-0000000-8-8888888-77777777----------------------------------|
C#-3-3333333-0-0000000-8-8888888-77777777----------------------------------|

D#--------------------------------------------------------------------------|
A#--------------------------------------------------------------------------|
F#--------------------------------------------------------------------------|
C#-3-333333-0-000000--------------------------------------------------------|
G#-3-333333-0-000000--------------------------------------------------------|
C#-3-333333-0-000000--------------------------------------------------------|

Solo
D#-------------------------------------------------------------------------|
A#-66666666666-888888-5555555555-------------------------------------------|
F#------------------------------777----------------------------------------|
C#-------------------------------------------------------------------------|
G#-------------------------------------------------------------------------|
C#-------------------------------------------------------------------------|
Tap to rate this tab
 
# A B C D E F G H I J K L M N O P Q R S T U V W X Y Z