Song name
# A B C D E F G H I J K L M N O P Q R S T U V W X Y Z

Subway To Sally - Lacrimae 74 tab

STANDARD TUNING
NO CAPO (although it sounds good as well if you use your capo on 3rd or 5th fret)



e|-----------0---------------------------5-----|
H|--------------1--------------1---------------|
G|-------2--------2----2----------2------------|
D|----2--------------2----2----------2---------|
A|----0----------------------------------------|
E|---------------------------------------------|

e|--------7-----7s0----------------------------|
H|-------------------------------------8-------|
G|-------------------------------------9-------|
D|-------------------------------------9-------|
A|-------------------------------------7-------|
E|-------------------------------------0-------|

e|---------------------------------------------|
H|----------------------------------------3----|
G|------10----------9----------7----------2----|
D|----------------------------------------2----|
A|----------------------------------------0----|
E|---------------------------------------------|

e|--0------------------------------------------|
H|-----0---1---0--1--0--------3s0------------0-|
G|-------------------------------------------2-|
D|-------------------------------------------2-|
A|-------------------------------------------0-|
E|---------------------------------------------|



Have fun & Good luck!
Tap to rate this tab
# A B C D E F G H I J K L M N O P Q R S T U V W X Y Z