Song name
# A B C D E F G H I J K L M N O P Q R S T U V W X Y Z

Subway To Sally - Das Opfer tab

Das Opfer - Subway To Sally


Tuning: Drop D



Intro (Chorus)

e-------------|---------------------------------------------|
B-------------|---------------------------------------------|
G-------------|---------------------------------------------|
D--1-0--0-0-0-|-3-0--0-0-0--5-0--0-0-0--4-0-3-0-1-0--0-0-0--| x4
A--1-0--0-0-0-|-3-0--0-0-0--5-0--0-0-0--4-0-3-0-1-0--0-0-0--|
E--1-0--0-0-0-|-3-0--0-0-0--5-0--0-0-0--4-0-3-0-1-0--0-0-0--|
        . . .        . . .       . . .               . . .


Verse

e--9*--------------------------------------------------------|--9*--------------------|
B---9*-------------------------------------------------------|---9*-------------------|
G----9*------------------------------------------------------|----9*------------------|
D------9*---0-0-0-0-0--x4--3-3-3-3-3-3-3-3--5-5-5-5-5-5-5-5--|------9*---0-0-0-0-0-2x-| x2
A-----------0-0-0-0-0------3-3-3-3-3-3-3-3--5-5-5-5-5-5-5-5--|-----------0-0-0-0-0----|
E-----------0-0-0-0-0------3-3-3-3-3-3-3-3--5-5-5-5-5-5-5-5--|-----------0-0-0-0-0----|
            . . . . .          .       .        .       .               . . . . .        




Chorus

e-------------|---------------------------------------------|
B-------------|---------------------------------------------|
G-------------|---------------------------------------------|
D--1-0--0-0-0-|-3-0--0-0-0--5-0--0-0-0--4-0-3-0-1-0--0-0-0--| x4
A--1-0--0-0-0-|-3-0--0-0-0--5-0--0-0-0--4-0-3-0-1-0--0-0-0--|
E--1-0--0-0-0-|-3-0--0-0-0--5-0--0-0-0--4-0-3-0-1-0--0-0-0--|
        . . .        . . .       . . .               . . .


Verse

e--9*--------------------------------------------------------|--9*--------------------|
B---9*-------------------------------------------------------|---9*-------------------|
G----9*------------------------------------------------------|----9*------------------|
D------9*---0-0-0-0-0--x4--3-3-3-3-3-3-3-3--5-5-5-5-5-5-5-5--|------9*---0-0-0-0-0-2x-| x2
A-----------0-0-0-0-0------3-3-3-3-3-3-3-3--5-5-5-5-5-5-5-5--|-----------0-0-0-0-0----|
E-----------0-0-0-0-0------3-3-3-3-3-3-3-3--5-5-5-5-5-5-5-5--|-----------0-0-0-0-0----|
            . . . . .          .       .        .       .               . . . . .        



Outro (not sure about this)

e--------------------------------------------------9^----|
B-------------------------------------------------9^9^---|
G---------------------------------------------9^-9^--9^--|
D--1-0--0-0-0--3-0--0-0-0--5-0--0-0-0--6-0---9^----------| Until the end.
A--1-0--0-0-0--3-0--0-0-0--5-0--0-0-0--6-0--7^-----------|
E--1-0--0-0-0--3-0--0-0-0--5-0--0-0-0--6-0---------------|
        . . .       . . .       . . .



Not 100% right but I play it like this.



. = Palm Mute
* = Harmonic
^ = Pinch Harmonic
v = Bending
Tap to rate this tab
 
# A B C D E F G H I J K L M N O P Q R S T U V W X Y Z