Song name
# A B C D E F G H I J K L M N O P Q R S T U V W X Y Z

Subway To Sally - Feuerland tab

Feuerland - Subway To Sally


Tuning: Drop C




Chorus (Intro)

d-------------------------------------|
A-------------------------------------|
F-------------------------------------| 
C--3-3-33-3-33-3-33-33-33-3-3-3-33-3--|   x4
G--3-3-33-3-33-3-33-33-33-3-3-3-33-3--|
C--3-3-33-3-33-3-33-33-33-3-3-3-33-3--|
       ..   ..   .. .. .. .     ..



Verse

d-------Harmonics am Ende vom 3. Bund----------------Anfang 3. Bund----|
A----------------------------------------------------------------------|
F----------------------------------------------------------------------|
C-------------33-3-------------33-3-------------33-3-------------33-3--|
G-------------33-3-------------33-3-------------33-3-------------33-3--|
C--3*-3*-3*3*-33-3--3*-3*-3*3*-33-3--3*-3*-3*3*-33-3--3*-3*-3*3*-33-3--|
              ..               ..               ..               ..

d-------------------------------------|
A-------------------------------------|
F-------------------------------------|
C--3-3-33-3-33-3-33-33-33-3-3-3-33-3--|
G--3-3-33-3-33-3-33-33-33-3-3-3-33-3--|
C--3-3-33-3-33-3-33-33-33-3-3-3-33-3--|
       ..   ..   .. .. .. .     ..

d-------Harmonics am Ende vom 3. Bund----------------Anfang 3. Bund----|
A----------------------------------------------------------------------|
F----------------------------------------------------------------------|
C-------------33-3-------------33-3-------------33-3-------------33-3--|
G-------------33-3-------------33-3-------------33-3-------------33-3--|
C--3*-3*-3*3*-33-3--3*-3*-3*3*-33-3--3*-3*-3*3*-33-3--3*-3*-3*3*-33-3--|
              ..               ..               ..               ..

d-------------------------------------|
A-------------------------------------|
F-------------------------------------|
C--3-3-33-3-33-3-33-33-33-3-3-3-33-3--|
G--3-3-33-3-33-3-33-33-33-3-3-3-33-3--|
C--3-3-33-3-33-3-33-33-33-3-3-3-33-3--|
       ..   ..   .. .. .. .     ..

d-----------------------------|
A-----------------------------|
F-----------------------------|
C--4----5----6---66-55-44-33--|
G--4----5----6---66-55-44-33--|
C--4----5----6---66-55-44-33--|
                 .  .  .  .



Chorus

d-------------------------------------|
A-------------------------------------|
F-------------------------------------| 
C--3-3-33-3-33-3-33-33-33-3-3-3-33-3--|   x4
G--3-3-33-3-33-3-33-33-33-3-3-3-33-3--|
C--3-3-33-3-33-3-33-33-33-3-3-3-33-3--|
       ..   ..   .. .. .. .     ..



Verse

d-------Harmonics am Ende vom 3. Bund----------------Anfang 3. Bund----|
A----------------------------------------------------------------------|
F----------------------------------------------------------------------|
C-------------33-3-------------33-3-------------33-3-------------33-3--|
G-------------33-3-------------33-3-------------33-3-------------33-3--|
C--3*-3*-3*3*-33-3--3*-3*-3*3*-33-3--3*-3*-3*3*-33-3--3*-3*-3*3*-33-3--|
              ..               ..               ..               ..

d-------------------------------------|
A-------------------------------------|
F-------------------------------------|
C--3-3-33-3-33-3-33-33-33-3-3-3-33-3--|
G--3-3-33-3-33-3-33-33-33-3-3-3-33-3--|
C--3-3-33-3-33-3-33-33-33-3-3-3-33-3--|
       ..   ..   .. .. .. .     ..

d-------Harmonics am Ende vom 3. Bund----------------Anfang 3. Bund----|
A----------------------------------------------------------------------|
F----------------------------------------------------------------------|
C-------------33-3-------------33-3-------------33-3-------------33-3--|
G-------------33-3-------------33-3-------------33-3-------------33-3--|
C--3*-3*-3*3*-33-3--3*-3*-3*3*-33-3--3*-3*-3*3*-33-3--3*-3*-3*3*-33-3--|
              ..               ..               ..               ..

d-------------------------------------|
A-------------------------------------|
F-------------------------------------|
C--3-3-33-3-33-3-33-33-33-3-3-3-33-3--|
G--3-3-33-3-33-3-33-33-33-3-3-3-33-3--|
C--3-3-33-3-33-3-33-33-33-3-3-3-33-3--|
       ..   ..   .. .. .. .     ..

d-----------------------------|
A-----------------------------|
F-----------------------------|
C--4----5----6---66-55-44-33--|
G--4----5----6---66-55-44-33--|
C--4----5----6---66-55-44-33--|
                 .  .  .  .



Chorus

d-------------------------------------|
A-------------------------------------|
F-------------------------------------| 
C--3-3-33-3-33-3-33-33-33-3-3-3-33-3--|   x6
G--3-3-33-3-33-3-33-33-33-3-3-3-33-3--|
C--3-3-33-3-33-3-33-33-33-3-3-3-33-3--|
       ..   ..   .. .. .. .     ..


(Violine, Gesang, etc) 



Chorus (Outro)

d--------Von Vorschlaggabel _-------|
A-------------------------------------|
F-------------------------------------| 
C--3-3-33-3-33-3-33-33-33-3-3-3-33-3--|    ganz oft xD
G--3-3-33-3-33-3-33-33-33-3-3-3-33-3--|
C--3-3-33-3-33-3-33-33-33-3-3-3-33-3--|
       ..   ..   .. .. .. .     ..



. = Palm Mute
* = Harmonic
Tap to rate this tab
 
# A B C D E F G H I J K L M N O P Q R S T U V W X Y Z