Subway To Sally - Traum Vom Tod I tab

Man kann das eigentlich das ganze Lied lang spielen:

e|-------0---------|-------0--------0-|-------2---------|-------2--------2-|-
B|---3-----3-------|---3--------3-----|---3-----3-------|---3-------3------|-
G|-----4-----4---4-|-----4--------4---|-----4-----4---4-|-----4-------4----|-
D|-----------------|------------------|-----------------|------------------|-
A|-2-----------2---|-2--------4-------|-0-----------0---|-0-------4--------|-
E|-----------------|------------------|-----------------|------------------|-

e|------3---------|-------3------3-|-------5---------|-------5---------|-----
B|--3-----3-------|---3------3-----|---3-----3-------|---3-----3-------|-----
G|----4-----4---4-|-----4------4---|-----4-----4---4-|-----4-----4---4-|-----
D|----------------|----------------|-----------------|-----------------|-----
A|----------------|----------------|-----------------|-----------------|-----
E|3-----------3---|-3-------2------|-0-----------0---|-0-----------0---|-----




************************************

| /   slide up
| \   slide down
| h   hammer-on
| p   pull-off
| ~   vibrato
| +   harmonic
| x   Mute note
| b   Bend
| pb  Pre-bend
| br  Bend release
| pbr Pre-bend release
| brb Bend release bend

************************************
Tap to rate this tab
 
# A B C D E F G H I J K L M N O P Q R S T U V W X Y Z