Song name
# A B C D E F G H I J K L M N O P Q R S T U V W X Y Z

Subway To Sally - Kraehenfrass tab

standard Tuning E A D G B E


Guitar 1
E-------------------|
B-------------------|
G-------------------|
D--7-4-2-4---4-4-6--|
A--7-4-2-4---4-4-6--|
E--5-2-0-2---2-2-4--|


Guitar 2
E-----------5-------|
B-----------7-------|
G-----------6-------|
D--7-4-2-4---4-4-6--|
A--7-4-2-4---4-4-6--|
E--5-2-0-2---2-2-4--|
Tap to rate this tab
# A B C D E F G H I J K L M N O P Q R S T U V W X Y Z