Guitaretab - guitar tabs
Song name
# A B C D E F G H I J K L M N O P Q R S T U V W X Y Z

Succo Marcio - Non Mi Piace tab

-------------------------------------------------------------------------------
			     NON MI PIACE - Succo Marcio
-------------------------------------------------------------------------------
Tabbed by:Andrea Fini
Email:andreafini@hotmail.com

Tuning:standard


hi, this is my first tab, and maybe it's not perfect... but i hope it's quite right..
This band is not popular all over the world, but it's a quite famous power pop-punk
band in Italy. You can find information about them at www.succomarcio.com.
The guitar sounds very easy, only 3 or 4 power chords reapeted.. maybe it's not actually
so easy, but it sounds right..


Band: Succo Marcio
Title: Non Mi Piace
Album: SarÓ anche lei come tutte le altre?


    Intro:
  A		  D		  E               E
e|---------------|---------------|---------------|---------------|
B|---------------|---------------|---------------|---------------|
G|---------------|x-x-7-x-x-7-7-7|---------------|---------------|
D|x-x-7-x-x-7-x-7|x-x-7-x-x-7-7-7|x-x-6-x-x-6-x-6|x-x-6-x-x-6-6-6|   X 2
A|x-x-7-x-x-7-x-7|x-x-5-x-x-5-5-5|x-x-7-x-x-7-x-7|x-x-7-x-x-7-7-7| 
E|x-x-5-x-x-5-x-5|----------------x-x-7-x-x-7-x-7|x-x-7-x-x-7-7-7|

   

  Verse 1:
  A		   A                D                E
e|----------------|----------------|----------------|-----------------|
B|----------------|----------------|----------------|-----------------|
G|----------------|----------------|----------------|-----------------| 
D|7---------------|----------------|----------------|-----------------|
A|7---------------|----------------|5-5-5-5-5-5-5-5-|/7-7-7-7-7-7-7-7-|
E|5-5-5-5-5-5-5-5-|5-5-5-5-5-5-5-5-|----------------|-----------------|
 
 "mi sveglio la mattina, mentre ancora sto sognando,

  A		   A                D                E
e|----------------|----------------|----------------|-----------------|
B|----------------|----------------|----------------|-----------------|
G|----------------|----------------|----------------|-----------------| 
D|----------------|----------------|----------------|-----------------|
A|----------------|----------------|5-5-5-5-5-5-5-5-|/7-7-7-7-7-7-7-7-|  X 2
E|5-5-5-5-5-5-5-5-|5-5-5-5-5-5-5-5-|----------------|-----------------|

  vorrei riaddormentarmi, ma non so come e quando
  (start drumming)
  il giorno che mi aspetta, sarÓ una fregatura

  A		   A                D                E
e|----------------|----------------|----------------|----------------|
B|----------------|----------------|----------------|----------------|
G|----------------|----------------|7-7-7-7-7-7-7-7-|9-9-9-9-9-9-9-9-|
D|----------------|----------------|7-7-7-7-7-7-7-7-|9-9-9-9-9-9-9-9-|
A|----------------|----------------|5-5-5-5-5-5-5-5-|7-7-7-7-7-7-7-7-|
E|5-5-5-5-5-5-5-5-|5-5-5-5-5-5-5-5-|----------------|----------------|

  la solita gente, le solite facce, vorrei che tornasse la notte oscura..
  
 

  Chorus:

  D                E                A                A
e|----------------|-------------- -|----------------|----------------|
B|----------------|----------------|----------------|----------------|
G|7-7-7-7-7-7-7-7-|9-9-9-9-9-9-9-9-|----------------|----------------|  
D|7-7-7-7-7-7-7-7-|9-9-9-9-9-9-9-9-|7-7-7-7-7-7-7-7-|7-7-7-7-7-7-7-7-| 
A|5-5-5-5-5-5-5-5-|7-7-7-7-7-7-7-7-|7-7-7-7-7-7-7-7-|7-7-7-7-7-7-7-7-|   X 3
E|----------------|----------------|5-5-5-5-5-5-5-5-|5-5-5-5-5-5-5-7-|

  Ma tutto questo non mi piace
  Forse di viverlo non sono mai stato capace
  Ma perchŔ tutti mi dicono quello che devo e che non devo fare

  D                E                A                  A
e|----------------|----------------|------------------|----------------|
B|----------------|----------------|------------------|----------------|
G|7-7-7-7-7-7-7-7-|9-9-9-9-9-9-9-9-|------------------|----------------|
D|7-7-7-7-7-7-7-7-|9-9-9-9-9-9-9-9-|\7x-7-x-7-x-7-x-7-|.. 
A|5-5-5-5-5-5-5-5-|7-7-7-7-7-7-7-7-|\7x-7-x-7-x-7-x-7-|..
E|----------------|----------------|\5x-5-x-5-x-5-x-5-|..

  Credono di sapere...

(i didn't exactly understand the rythm of the last A power chords.. forgive me,
try to find it out from the music)

  Verse 2:
e|-------------------------------------------------------------------|
B|-------------------------------------------------------------------|
G|----------------|7-7-7-7-7-7-7-7-|9-9-9-9-9-9-9-9-|9-9-9-9-9-9-9-9-|
D|7-7-7-7-7-7-7-7-|7-7-7-7-7-7-7-7-|9-9-9-9-9-9-9-9-|9-9-9-9-9-9-9-9-|
A|7-7-7-7-7-7-7-7-|5-5-5-5-5-5-5-5-|7-7-7-7-7-7-7-7-|7-7-7-7-7-7-7-7-|   X 4
E|5-5-5-5-5-5-5-5-|--------------------------------------------------|
[ Tab from: http://www.guitaretab.com/s/succo-marcio/57978.html ]
  Ora davvero non sarete pi¨ nessuno
  Voi che credete di esser stati qualcuno
  Ma ora l'ho capito, ci˛ che conta sono solo io
  E adesso basta, giuro, riuscir˛ a dirti addio-o !


  Chorus:
    D                E                A                A
e|----------------|-------------- -|----------------|----------------|
B|----------------|----------------|----------------|----------------|
G|7-7-7-7-7-7-7-7-|9-9-9-9-9-9-9-9-|----------------|----------------|  
D|7-7-7-7-7-7-7-7-|9-9-9-9-9-9-9-9-|7-7-7-7-7-7-7-7-|7-7-7-7-7-7-7-7-| 
A|5-5-5-5-5-5-5-5-|7-7-7-7-7-7-7-7-|7-7-7-7-7-7-7-7-|7-7-7-7-7-7-7-7-|   X 3
E|----------------|----------------|5-5-5-5-5-5-5-5-|5-5-5-5-5-5-5-7-|

  Ma tutto questo non mi piace
  Forse di viverlo non sono mai stato capace
  Ma perchŔ tutti mi dicono quello che devo e che non devo fare

  D                E              
e|----------------|----------------|
B|----------------|----------------|
G|7-7-7-7-7-7-7-7-|9-9-9-9-9-9-9-9-| 
D|7-7-7-7-7-7-7-7-|9-9-9-9-9-9-9-9-|
A|5-5-5-5-5-5-5-5-|7-7-7-7-7-7-7-7-|  
E|----------------|----------------|

  Lasciatemi in pace voglio

  interlude:
  
e|----------------|----------------|----------------|----------------|
B|----------------|----------------|----------------|----------------|
G|----------------|7-7-7-7-7-7-7-7-|9-9-9-9-9-9-9-9-|9-9-9-9-9-9-9-9-|
D|7-7-7-7-7-7-7-7-|7-7-7-7-7-7-7-7-|9-9-9-9-9-9-9-9-|9-9-9-9-9-9-9-9-|
A|7-7-7-7-7-7-7-7-|5-5-5-5-5-5-5-5-|7-7-7-7-7-7-7-7-|7-7-7-7-7-7-7-7-|   X 4
E|5-5-5-5-5-5-5-5-|----------------|----------------|----------------|
  
  sognare!

  
  let ring..
e|--|-|-|----------------|
B|--|-|-|----------------|
G|--|-|-|----------------|
D|7-|-|-|---x-x-x-x-x-x-x|
A|7-|-|-|---x-x-x-x-x-x-x| X 2
E|5-|-|-|---x-x-x-x-x-x-x|



  verse 3:  (only the bass continues playing A A D E)

 "mi sveglio la mattina, mentre ancora sto sognando,
  vorrei riaddormentarmi, ma non so come e quando
  il giorno che mi aspetta, sarÓ una fregatura

  A		   A                D                E
e|----------------|----------------|----------------|----------------|
B|----------------|----------------|----------------|----------------|
G|----------------|----------------|7-7-7-7-7-7-7-7-|9-9-9-9-9-9-9-9-|
D|----------------|----------------|7-7-7-7-7-7-7-7-|9-9-9-9-9-9-9-9-|
A|----------------|----------------|5-5-5-5-5-5-5-5-|7-7-7-7-7-7-7-7-|
E|----------------|----------------|----------------|----------------|

  la solita gente, le solite facce, vorrei che tornasse la notte oscura..


  Chorus:
    D                E                A                A
e|----------------|-------------- -|----------------|----------------|
B|----------------|----------------|----------------|----------------|
G|7-7-7-7-7-7-7-7-|9-9-9-9-9-9-9-9-|----------------|----------------|  
D|7-7-7-7-7-7-7-7-|9-9-9-9-9-9-9-9-|7-7-7-7-7-7-7-7-|7-7-7-7-7-7-7-7-| 
A|5-5-5-5-5-5-5-5-|7-7-7-7-7-7-7-7-|7-7-7-7-7-7-7-7-|7-7-7-7-7-7-7-7-|   X 3
E|----------------|----------------|5-5-5-5-5-5-5-5-|5-5-5-5-5-5-5-7-|

  Ma tutto questo non mi piace
  Forse di viverlo non sono mai stato capace
  Ma perchŔ tutti mi dicono quello che devo e che non devo fare

  D                E              
e|----------------|----------------|
B|----------------|----------------|
G|7-7-7-7-7-7-7-7-|9-9-9-9-9-9-9-9-| 
D|7-7-7-7-7-7-7-7-|9-9-9-9-9-9-9-9-|
A|5-5-5-5-5-5-5-5-|7-7-7-7-7-7-7-7-|  
E|----------------|----------------|

  Lasciatemi in pace..


    D                E                A                A
e|----------------|-------------- -|----------------|----------------|
B|----------------|----------------|----------------|----------------|
G|7-7-7-7-7-7-7-7-|9-9-9-9-9-9-9-9-|----------------|----------------|  
D|7-7-7-7-7-7-7-7-|9-9-9-9-9-9-9-9-|7-7-7-7-7-7-7-7-|7-7-7-7-7-7-7-7-| 
A|5-5-5-5-5-5-5-5-|7-7-7-7-7-7-7-7-|7-7-7-7-7-7-7-7-|7-7-7-7-7-7-7-7-|   X 3
E|----------------|----------------|5-5-5-5-5-5-5-5-|5-5-5-5-5-5-5-7-|

  Ho detto questo non mi piace
  Forse di viverlo non sono mai stato capace
  Ma perchŔ tutti mi dicono quello che va bene o che va male

  D                E                A              G# A
e|----------------|----------------|-----------------|---|
B|----------------|----------------|-----------------|---|
G|7-7-7-7-7-7-7-7-|9-9-9-9-9-9-9-9-|-----------------|---|
D|7-7-7-7-7-7-7-7-|9-9-9-9-9-9-9-9-|7-7-7-7-7-7-7-\6-|/7-|
A|5-5-5-5-5-5-5-5-|7-7-7-7-7-7-7-7-|7-7-7-7-7-7-7-\6-|/5-|
E|----------------|----------------|5-5-5-5-5-5-5-\4-|/5-|

  Lasciatemi in pace, voglio sognare!"

| /  slide up
| \  slide down
| h  hammer-on
| p  pull-off
| ~  vibrato
| +  harmonic
| x  Mute note
===============================================================================
Related for Non Mi Piace tab