Song name
# A B C D E F G H I J K L M N O P Q R S T U V W X Y Z

Such Gold - Gut Rot Acoustic tab

The tab i made is based off this YouTube video of them playing the song:
http://www.youtube.com/watch?v=snjijXnFvCw

This is my first tab! So be nice. Basically, it has all the chords and notes in 
the song, you just need to listen to the song to feel where they go :)
e.g when I say:

a-1111111
d-1111111

I do not mean "play this 7 times." It is just giving you the chord for you to play 
along to the song so that you can get the rhythm and feel yourself.     
        intro
d |-------------------------------------------------------------------------|
b | ------------------------------------------------------------------------|
g |-------------------------------------------------------------------------|
d |--6-6---8-8---11-11--00-3h4p3-----66--88--11111111--66---88--11111111----| 
a |--4-----6-----9------00-----------44--66--9-9-9-9---44---66--9-9-9-9-----|
d |--4-----6-----9------00-----------44--66--9-9-9-9---44---66--9-9-9-9-----|

        
d |-------------------------------------------------------------------------|
b | --Given every chance, our outstretched hands----------------------------|
g |-------------------------------------------------------------------------|
d |---xxxx-11111111-9-8--8-9-11--88888---9-8-6-8-6--66666--4444x44x44-------|
a |---xxxx-9-9-9-9-----11--------66666--------------44444--2222x22x22-------|
d |---xxxx-9-9-9-9---------------66666--------------44444--2222x22x22-------|

        And I canít believe, all the things youíve taken from me:
d |--------------------|---------------------|
b | -------------------|---------------------|
g |-----------------3--|---------------------|
d |----------3-/-4--4--|-x3------------------|
a |--111111--1-/-2--2--|-------44444444------|
d |--111111------------|-------44444444------|

        Bridge
d |------This bit you need----------------------------------------------------------------------|
b |---to bend all 3 strings up then back down---------------------------------------------------|
g |---11-11-11-11-11-11b~-11b~--8-8-8-8-8-8b~-8b~--6-6-6-6-6b~-6b~--4-4-4-4-4b~-4b~-------------|
d |---11-11-11-11-11-11b~-11b~--8-8-8-8-8-8b~-8b~--6-6-6-6-6b~-6b~--4-4-4-4-4b~-4b~--4444x44-44-|
a |----9--9--9--9--9--9b~-9b~---6-6-6-6-6-6b~-6b~--4-4-4-4-4b~-4b~--2-2-2-2-2b~-2b~--2222x22-22-|
d |----9--9--9--9--9--9b~-9b~---6-6-6-6-6-6b~-6b~--4-4-4-4-4b~-4b~--2-2-2-2-2b~-2b~--2222x22-22-|
Tap to rate this tab
# A B C D E F G H I J K L M N O P Q R S T U V W X Y Z