Song name
# A B C D E F G H I J K L M N O P Q R S T U V W X Y Z

Such Gold - Gut Rot tab

This is most of the Such Gold's Gut Rot. It's missing the bridge part at the end and 
some fills here and there. It shouldn't be hard to figure out the rest of the song with 
what's given here though.

Here's a video of one of Nate of Such Gold playing along to the song. You can watch his 
fingers for some help. http://www.youtube.com/watch?v=R9CKV4C-fek

Tuned to Drop C#/Db


Intro
D#|------------------------------------------------|
A#|------------------------------------------------|
F#|------------------------------------------------|
C#|--------7--------9----------12\--------4/5\4----|
G#|--5--5-----7--7-----10--10-------2--2---------5-|
C#|--5--5-----7--7-----10--10-------2--2---------5-|


Verse (So chalk it up to...)
D#|-------------------------------------------|
A#|-------------------------------------------|
F#|-------------------------------------------|
C#|--7--7----9--9----12--12----2-2-2--4/5\4---|
G#|--7--7----9--9----12--12----2-2-2----------|
C#|--5--5----7--7----10--10----2-2-2----------|

Given every chance...
D#|----------------------------------|
A#|----------------------------------|
F#|----------------------------------|
C#|--12--12--12--12--12--12--12--12--|    *fill*
G#|--12--12--12--12--12--12--12--12--|
C#|--10--10--10--10--10--10--10--10--|

D#|--------------------------|
A#|--------------------------|
F#|--------------------------|
C#|--9--9--9--9--9--9--9--9--|      *fill*
G#|--9--9--9--9--9--9--9--9--|
C#|--7--7--7--7--7--7--7--7--|

D#|--------------------------|
A#|--------------------------|
F#|--------------------------|
C#|--7--7--7--7--7--7--7--7--|
G#|--7--7--7--7--7--7--7--7--|     *fill*
C#|--5--5--5--5--5--5--5--5--|

And I can't believe...
D#|-----------------------------------|
A#|-----------------------------------|
F#|-----------------------------------|
C#|--2--2--2--2--2--2--4/5-5-5-5-5-5--|
G#|--2--2--2--2--2--2--2/3-3-3-3-3-3--|
C#|--2--2--2--2--2--2-----------------|
Tap to rate this tab
# A B C D E F G H I J K L M N O P Q R S T U V W X Y Z