Song name
# A B C D E F G H I J K L M N O P Q R S T U V W X Y Z

Such Gold - Sycamore tab

I'm not going to write out how many times you need to strum the chords, you can figure 
that out by listening to the song. This tab is 99% accurate, if you have any suggestions 
please put them down below. Do not rate down unless you leave a comment.

----------------------------------------------------------------|
----------------------------------------------------------------|
-6----4---4~---6----4---4---------6----4---4---6----4---4-2---6-|
-6-4-6-6--1~---6-4-6-6--1-9-6-4---6-4-6-6--1---6-4-6-6--1-2-4-6-|
-4--------2~---4--------2-0-0-0---4--------2---4--------2-0-4-4-|
------------------------------------------------------------4---|

-------7------------------7--|
---7-9--9----7-9-7----7-9--9-|
-----------9------9----------|
-7---------6---------7-------|
-7---------x---------7-------|
-7---------7---------7-------|

---------|
---------|
---------|
-4-2-----|
-4-2-----|
-4-2-----|

-------------------------------------|
-------------------------------------|
---6--------6---4-4-4----6-9-------4-|
-7-6-4-9--7-6-4-1-2-4--7-6-9-7-4-7-1-|
-7-4-4-9--7-4-4-2-2-2--7-4-7-7-4-7-2-|
-7---4-9--7---4--------7-----7-4-7---|
Tap to rate this tab
# A B C D E F G H I J K L M N O P Q R S T U V W X Y Z