Song name
# A B C D E F G H I J K L M N O P Q R S T U V W X Y Z

Sucioperro - Apathyinaction tab

Title: Apathy=Inaction
Artist: Sucioperro
Album: Random Acts of Itimacy

Tuning: Drop D

Intro
E|------7-----7-------5-----5-------3-----3-------2-----2---|
B|----------------------------------------------------------|
G|----7-----7-------5-----5-------4-----4-------2-----2-----|
D|--5-----5-------4-----4-------2-----2---------------------|
A|--------------------------------------------2-----2-------|
D|----------------------------------------------------------|

E|------3-----3-------5-----5---|
B|----0-----0-------------------|
G|------------------5-----5-----|
D|------------------------------|
A|--3-----3---------------------|
D|----------------0-----0-------|

E|------8-----7---------5-----7----------5-----3---------2-----3------|
B|----------------0----------------------------------------3-----3----|
G|----7---0-----0-----5---0-----0------4---0-----0-----2-----2--------|
D|--5-------5-------4-------4-----0--2-------2-----0---------------0--|
A|---------------------------------------------------2----------------|
D|--------------------------------------------------------------------|

E|------5-----3---------5-----5------|
B|----------0-----0------------------|
G|----4---0-----0-----5-----5---0----|
D|-----------------------------------|
A|--3--------------------------------|
D|------------------0-----0----------|


Verse 1
E|--------------------2-----2-------3-----3-------2-----2---|
B|------3-----3---------------------------------------------|
G|----0-----0-------2-----2-------4-----4-------2-----2-----|
D|----------------------------------------------------------|
A|--------------------------------------------2-----2-------|
D|--5-----5-------0-----0-------2-----2---------------------|

E|------3-----3-----------------|
B|----0-----0---------0-----0---|
G|------------------5-----5-----|
D|----------------4-----4-------|
A|--3-----3---------------------|
D|------------------------------|

E|--------------------2-----2-------3-----3-------2-----2---|
B|------3-----3---------------------------------------------|
G|----0-----0-------2-----2-------4-----4-------2-----2-----|
D|----------------------------------------------------------|
A|--------------------------------------------2-----2-------|
D|--5-----5-------0-----0-------2-----2---------------------|

E|------3-----3-----------------|
B|----0-----0---------0-----0---|
G|------------------5-----5-----|
D|----------------4-----4-------|
A|--3-----3---------------------|
D|------------------------------|


Verse 2
E|------3-----3----------5-----5-------3-----3-------------------------|
B|---------------------------------------------0---------7-----7-------|
G|----0-----0----(0)---0-----0-------4-----4-----0-----7-----7-----7---|
D|--5-----5----------4-----4-------2-----2-----------9-----9-----9-----|
A|---------------------------------------------------------------------|
D|---------------------------------------------------------------------|

E|-------------------------5-----5--------|
B|-------8------8-------------------------|
G|-----0------0----(0)---5-----5----(0)---|
D|--10-----10-----------------------------|
A|----------------------------------------|
D|---------------------0-----0------------|

E|------3-----3----------5-----5---------3-----3---------2-----2------|
B|-----------------------------------------------0-----------------0--|
G|----0-----0----(0)---0-----0-----0---4-----4-----0---2-----2---2----|
D|--5-----5----------4-----4-----0---2-----2--------------------------|
A|---------------------------------------------------2-----2----------|
D|--------------------------------------------------------------------|

E|------3-----3--------8-----8---|
B|----0-----0---0----7-----7-----|
G|-------------------------------|
D|-----------------4-----4-------|
A|--3-----3----------------------|
D|-------------------------------|


Chorus 1
E|--------------------------------------------------------------------|
B|----0----0-----0----0------0---------0----0-------0----0-------0----|
G|------0----------0-----------0---------0------------0------------0--|
D|--------------------------------------------------------------------|
A|--7--------7/9--------9/10-----10/15--------15\14--------14\12------|
D|--------------------------------------------------------------------|


E|--------------------------------------------------------------------|
B|----0----0-----0----0------0---------0----0-------0----0-------0----|
G|------0----------0-----------0---------0------------0------------0--|
D|--------------------------------------------------------------------|
A|--7--------7/9--------9/10-----10/17--------17\15--------15\14------|
D|--------------------------------------------------------------------|

E|------------------------------|
B|------3-----3-------0-----0---|
G|----0-----0-------5-----5-----|
D|----------------4-----4-------|
A|--3-----3---------------------|
D|------------------------------|

E|--------------------------------------------------------------------|
B|----0----0-----0----0------0---------0----0-------0----0-------0----|
G|------0----------0-----------0---------0------------0------------0--|
D|--------------------------------------------------------------------|
A|--7--------7/9--------9/10-----10/15--------15\14--------14\12------|
D|--------------------------------------------------------------------|


E|--------------------------------------------------------------------|
B|----0----0-----0----0------0---------0----0-------0----0-------0----|
G|------0----------0-----------0---------0------------0------------0--|
D|--------------------------------------------------------------------|
A|--7--------7/9--------9/10-----10/17--------17\15--------15\14------|
D|--------------------------------------------------------------------|

E|--------------------------3~----|
B|------3-----3---(0)-----0-------|
G|----0-----0---0-------5---------|
D|--------------------4-----------|
A|--3-----3-----------------------|
D|--------------------------------|


Verse 3
E|--------10-------10--------10------10-------10-----10---|
B|------------------------------------------8------8------|
G|-----12-------12--------11------11----------------------|
D|--------------------------------------------------------|
A|--10-------10---------9-------9---------7------7--------|
D|--------------------------------------------------------|

E|------10-----10--------10------10-------8-----8---|
B|----7------7---------8-------8--------7-----7-----|
G|--------------------------------------------------|
D|--9------9--------10------10--------4-----4-------|
A|--------------------------------------------------|
D|--------------------------------------------------|

E|--------10-------10--------10------10-------10-----10---|
B|------------------------------------------8------8------|
G|-----12-------12--------11------11----------------------|
D|--------------------------------------------------------|
A|--10-------10---------9-------9---------7------7--------|
D|--------------------------------------------------------|

E|------10-----10--------10------10-------8-----8---|
B|----7------7---------8-------8--------7-----7-----|
G|--------------------------------------------------|
D|--9------9--------10------10--------4-----4-------|
A|--------------------------------------------------|
D|--------------------------------------------------|

Outro
E|--------------------------------------------------------------------|
B|----0----0-----0----0------0---------0----0-------0----0-------0----|
G|------0----------0-----------0---------0------------0------------0--|
D|--------------------------------------------------------------------|
A|--7--------7/9--------9/10-----10/15--------15\14--------14\12------|
D|--------------------------------------------------------------------|


E|--------------------------------------------------------------------|
B|----0----0-----0----0------0---------0----0-------0----0-------0----|
G|------0----------0-----------0---------0------------0------------0--|
D|--------------------------------------------------------------------|
A|--7--------7/9--------9/10-----10/17--------17\15--------15\14------|
D|--------------------------------------------------------------------|

E|--------------------------3----|
B|------3-----3---0-----0--------|
G|----0-----0---0-----5---5------|
D|------------------4------------|
A|--3-----3----------------------|
D|-------------------------------|
Tap to rate this tab
# A B C D E F G H I J K L M N O P Q R S T U V W X Y Z