Song name
# A B C D E F G H I J K L M N O P Q R S T U V W X Y Z

Sucioperro - Grace And Out Of Me tab

Grace and Out of Me - Sucioperro version 3
tabbed by Chris MacDonald

The tablature here is my own interpretation of the song and the actual song is property 
J P Reid and the other members of Sucioperro. Thanks.

h -> hammer on
/ -> slide down
PM --| or P -> Palm muting
          M

* - accentuation (i.e hit it harder so it stands out more)
_ - hold note or chord

X - Mute strings(lift your fretting fingers slightly off the fretboard until you get no 
off the stings)

V/^ down/upstroke

E.G [12] - NATURAL HARMONIC - hold the pad of your finger above the fret

(gets a better sound when actually above the fret, not the middle of it.

for the example for 12th fret harmonic, hold your finger on the bar

between 12 and 13. :] This should get a good sound.)

Intro

E---------------         ----------------|
B---------------         ----------------|
G---------------         ----------------|
D--------------- X3 then ----------------|
A---------------         ----------------|
D---5h7-7-7-777-         --5h7-7-7-777/1-|

Verse Section 1 - Guitar 1

Managed to combine the two guitars into one, and its not that difficult really, just 
sure you hit the melody notes.

E-------------------------------------------------------|
B-------------------------------------------------------|
G-------------------------------------------------------|
D-0-0-7--0-0-7-0--0-6--0-0-6--0-0-7--0-0-7-0--0-6--0-0-5|  To section 2
A-0-0-0--0-0-0-0--0-0--0-0-0--0-0-0--0-0-0-0--0-0--0-0-0|
D-0-0-0--0-0-0-0--0-0--0-0-0--0-0-0--0-0-0-0--0-0--0-0-0|
PM-----------*------*--------------------*------*-------|

Verse Section 2
For this section you only need to hold one chord shape.

E--------------7-7--------------7-7--|
B-----8-8------8-8------8-8-----8-8--|
G-----9-9------9-9------9-9-----9-9--|
D-7-7------7-7------7-7-----7-7------|
A------------------------------------|
D------------------------------------|
  P P      P P      P P    P P
  M M      M M      M M    M M

You then repeat these two sections as many times as needed, I think it might be four? 0_o ?

Chorus
E------------------------------------------|
B------------------------------------------|
G-7-7-7-7-7-7-7-7-7-7-9-9-9-9-9-6-6-6-6-6--|
D-5-5-5-5-5-5-5-5-5-5-7-7-7-7-7-4-4-4-4-4--|
A-5-5-5-5-5-5-5-5-5-5-7-7-7-7-7-4-4-4-4-4--|
D-5-5-5-5-5-5-5-5-5-5-7-7-7-7-7-4-4-4-4-4--|
  V V ^ ^ V V V ^ ^ V V V ^ ^ V V V ^ ^ V
 Tried to understand the apex...

E-----------------------------------------|
B-----------------------------------------|
G-9-9-9-9-9-9-9-9-X-7-X-7-X-7-7-X-7-X-7-7-|
D-7-7-7-7-7-7-7-7-X-7-X-5-X-5-5-X-5-X-5-5-|
A-7-7-7-7-7-7-7-7-X-7-X-5-X-5-5-X-5-X-5-5-|
D-7-7-7-7-7-7-7-7-X-5-X-5-X-5-5-X-5-X-5-5-|
  V V ^ ^ V V V ^ ^ V V V ^ ^ V V V ^ ^ V
Only I'm fucking over...the edge.

Then repeat and go onto the next part.

E------------------------------------------|
B------------------------------------------|
G---------------------------------6p4-6-6--|
D-5-5-5-5-5-5-5-5-7-7-7-7-4-4-4-4-4-4-4-4--|
A-5-5-5-5-5-5-5-5-7-7-7-7-4-4-4-4-4-4-4-4--|
D-5-5-5-5-5-5-5-5-7-7-7-7-4-4-4-4-4-4-4-4--|
PM-----------------------------------------|

Run, hanging over the bro-oken...

Not sure how strums there are for each chord, just do an appropiate amount of fast palm muted notes.
Same applies to the next section.

E-----------------------------------------|
B-----------------------------------------|
G-9-9-9-9-9-9-9-9-X-7-X-7-X-7-7-X-7-X-7-7-|
D-7-7-7-7-7-7-7-7-X-7-X-5-X-5-5-X-5-X-5-5-|
A-7-7-7-7-7-7-7-7-X-7-X-5-X-5-5-X-5-X-5-5-|
D-7-7-7-7-7-7-7-7-X-5-X-5-X-5-5-X-5-X-5-5-|
  V V ^ ^ V V V ^ ^ V V V ^ ^ V V V ^ ^ V

This is repeated once more and then onto the bridge thing.

Section 4 - Bridge I guess...

E---------------------------------------------|
B-----------7-7-----------7-7-7-7-7--7--7-7-7-|
G-7-7-7-9-9-X-X-7-7-7-9-9-X-X-7-7-7--7--7-7-7-|
D-5-5-5-5-5-5-5-5-5-5-5-5-5-5-5-5-5--5--5-5-5-|
A---------------------------------------------|
D---------------------------------------------|

E----------------|                           |-----------------|
B-7-7-7--7--7-7-7|                           |-----------7-7---|
G-7-7-7--7--7-7-7|                 |-7-7-7-9-9-X-X-------------|X2
D-4-4-4--4--4-4-4| And then looop once then..|-7-7-7-7-7-7-7---|
A----------------|                           |-5-5-5-5-5-5-5---|
D----------------|                           |-----------------|

Section 5 - Breakdown-type... thing

E-------------------------[12-12-12-12------]-|
B-------------------------[12-12-12-12--12--]-|
G-------------------------[12-12-12-12----12]-|
D-2p0-2p0-2p0-2p0-2p0-2p0---------------------|
A-2p0-2p0-2p0-2p0-2p0-2p0---------------------|
D-2p0-2p0-2p0-2p0-2p0-2p0---------------------|

                          |Hold for 8 beats
			  |
E---------------------------------------------|
B-------------------------[12]----------------|
G-------------------------[12]----------------|
D-2p0-2p0-2p0-2p0-2p0-2p0---------------------|
A-2p0-2p0-2p0-2p0-2p0-2p0---------------------|
D-2p0-2p0-2p0-2p0-2p0-2p0---------------------|

Section 5 -2
For 4 repeats, guitar one plays by itself. After that guitar 2 joins in for the final 4 
its onto the outro.

 Guitar 1

E----------------|
B----------------|
G----------------|
D-2-2-2-4-6-9-7-7| X 8
A-2-2-2-4-6-9-7-7|
D-2-2-2-4-6-9-7-7|

Guitar 2

X7 means times 7 in this case, not mute then 7.

E------|------------------|
B------|------------------|
G-14---|11-----12-12------|
D--X-X7|-X--X7--X--X-X7---|
A-12---|-9------10-10-----|
D------|------------------|
    <----REPEAT-----------|

sECTION 6 - oUTRO

Strum this part in long running chords, i.e strum and let the note play.

E-----------------------|
B-----------------------|
G-7----7---------9---6--|
D-5--5-----------7---4--|
A-5--------------7---4--|
D-5--------------7---4--|
 Tried to understand the apex...

E-----------------------|
B-----------------------|
G-9---------9-7---------|
D-7---------7-5---------| Then loop once more then thats you done.
A-7---------7-5---------|
D-7---------7-5---------|


Only I'm fucking over...the edge.

Thanks for looking at my first stab at a tab :]
Tap to rate this tab
 
# A B C D E F G H I J K L M N O P Q R S T U V W X Y Z