Song name
# A B C D E F G H I J K L M N O P Q R S T U V W X Y Z

Sucioperro - Reflexes Of The Dead tab

e|---------------------------------------------------------------------------|
B|------10-9-7-5---10-9-7-5-7~-9-7~-9-6~-------------------------------------|
G|--9~-----------6-----------------------------------------------------------|
D|---------------------------------------------------------------------------|
A|---------------------------------------------------------------------------|
E|---------------------------------------------------------------------------|

Do this twice and then end on:

   Wake up, wake up my angel, you are my oxygen!
e|-0~------------------0-0---------------------------------------------------|
B|-0~------------------0-0---------------------------------------------------|
G|-1~------------------4-2---------------------------------------------------|
D|-2~------------------4-2---------------------------------------------------|
A|-2~------------------2-0---------------------------------------------------|
E|---------------------0-----------------------------------------------------|
Tap to rate this tab
 
# A B C D E F G H I J K L M N O P Q R S T U V W X Y Z