Song name
# A B C D E F G H I J K L M N O P Q R S T U V W X Y Z

Sucioperro - Reflexes Of The Dead tab

Tabbed by: David Lynn
E-mail: dave.chaz@btinternet.com

Tuning: Standard

Mostly correct, told by JP Reid/The Dragon himself how to play it

This progression makes up the main part of the first verse, just repeat it until it
reaches the I let go of your hand part. Repeat the open B-e string progression at the 
end on
a second guitar to replicate the sound of the glock being played; I think Stuart (The 
Spider) plays this part when the band have played the song acoustically.

e|-0------0---0------0---0------0---0---------------------|---0---0---0---0--|
B|-0------0---0------0---0------0---0---------------------|-0---0---0---0----|
G|-6------4---2------4---6------4---2---------------------|------------------|
D|-6------4---2------4---6------4---2---------------------|------------------|
A|-4------2---0------2---4------2---0---------------------|------------------|
E|--------------------------------------------------------|------------------|

This is the Let go of my hand section, just a repetition of an Asus2 and an E major arpeggio.

e|------0----------------0--------------0-------0-------0--------------------|
B|--------0----------------0--------------0-------0-------0------------------|
G|----------2----------------1--------------2-------1-------2----------------|
D|------------2----------------2------------------------------2--------------|
A|----0----------------2--------------0-------2-------0----------------------|
E|---------------------------------------------------------------------------|

The strumming pattern in the chorus is a tasty little off beat bass line over a constant
jangly drone from the highest strings, so, to avoid complications on the tabs, Iíll
just put the chords in order and let you listen to the timing yourself.
e|--0---0---0---0---0---0---0---0---0----------------------------------------|
B|--0---0---0---0---0---0---0---0---0----------------------------------------|
G|--9---9---9---9---9---9---9---9---9----------------------------------------|
D|--9---9---9---9---9---9---9---9---9----------------------------------------|
A|--7---6---7---x---x---6---7---x---0----------------------------------------|
E|--------------9---7-----------7--------------------------------------------|


The next verse is the same chord progression as the first verse, but instead of being
played as chord itís the octave of the bass note played as an arpeggio with the open B and
e strings.
                                                   Play this section twice
e|---0---0---0---0---0---0---0---0---0---0---0---0-|----12------12-----------|
B|--0-0-0-0-0-0-0-0-0-0-0-0-0-0-0-0-0-0-0-0-0-0-0-0|--12--12--12--12---------|
G|-6---6---4---4---1---1---4---4---6---6---4---4---|13------13---------------|
D|-------------------------------------------------|-------------------------|
A|-------------------------------------------------|-------------------------|
E|-------------------------------------------------|-------------------------|

After this it returns to the Pre-Chorus and then the Chorus again. The Wake up, wake up
my angel & Let me know nothing sections are both just the same as the chorus riff, which
is also the same riff thatís played over the chorus. The song end with this, the first 
set of chords is the closest to correct, but when played acoustically, a second guitarist
could play the lower bass-ier chords to add an extra harmonic layer to the song:




e|--0---0---0-----------------------|--0---0---0-----------------------------|
B|--0---0---0-----------------------|--0---0---0-----------------------------|
G|--9---9---9-----------------------|--1---4---2-----------------------------|
D|--9---9---9-----------------------|--2---4---2-----------------------------|
A|--7---x---0-----------------------|--2---2---0-----------------------------|
E|------7---------------------------|--0-------------------------------------|
Tap to rate this tab
# A B C D E F G H I J K L M N O P Q R S T U V W X Y Z