Song name
# A B C D E F G H I J K L M N O P Q R S T U V W X Y Z

Sucioperro - To Nothing tab

To Nothing - Sucioperro

Tabbed by request, shouldn't be too difficult to piece together.

Tabbed by David Lynn


Intro

e|---------------------------------------------------------------------------|
B|---------------------------------------------------------------------------|
G|------55555555------55555555-----------------------------------------------|
D|-55/77---------55/77-------------------------------------------------------|
A|-55/77---------55/77-------------------------------------------------------|
D|-55/77---------55/77-------------------------------------------------------|

Verse
e|---------------------------------------------------------------------------|
B|----------------------------------------3h5p3----------3h5p3---------------|
G|------55555555------55555555------4444-------h5--4444-------h5-------------|
D|-55/77---------55/77---------55/33----33-------33----33--------------------|
A|-55/77---------55/77---------55/33----33-------33----33--------------------|
D|-55/77---------55/77---------55/33----33-------33----33--------------------|

e|---------------------------------------------------------------------------|
B|-------------------------------------3h5p3----------3h5p3------------------|
G|---55555555------55555555------4444-------h5--4444-------h5----------------|
D|-77---------55/77---------55/33----33-------33----33-----------------------|
A|-77---------55/77---------55/33----33-------33----33-----------------------|
D|-77---------55/77---------55/33----33-------33----33-----------------------|


Pre-Chorus
e|---------------------------------------------------------------------------|
B|---------------------------------------------------------------------------|
G|-555-777-999999-444444444444-----------------------------------------------|
D|-333-555-777777-222222222222-----------------------------------------------|
A|-333-555-777777-222222222222-----------------------------------------------|
D|-333-555-777777-222222222222-----------------------------------------------|

Chorus                                   (This is the second guitar)
e|--------------------------------|------------------------------------------|
B|--------------------------------|------------------------------------------|
G|--------------------------------|------------9---------------12------------|
D|-33-355-533-355-----------------|--10-10p9h10-10p9-10-10p9h10--10p9--------|
A|-33-355-533-355---(repeat)------|------------------------------------------|
D|-33-355-533-355-----------------|------------------------------------------|

Breakdown 1
e|---------------------------------------------------------------------------|
B|---------------------------------------------------------------------------|
G|---------------------------------------------------------------------------|
D|-77-777-777-777-71010-1099-977-755-533-333-333-333-------------------------|
A|-77-777-777-777-71010-1099-977-755-533-333-333-333-------------------------|
D|-77-777-777-777-71010-1099-977-755-533-333-333-333-------------------------|

e|---------------------------------------------------------------------------|
B|---------------------------------------------------------------------------|
G|---------------------------------------------------------------------------|
D|------------------77-777-777-777-------------------------------------------|
A|--77--55--33--22--77-777-777-777-------------------------------------------|
D|-0---0---0---0---077-777-777-777-------------------------------------------|
(After the piano part just sustain each of these notes)
e|---------------------------------------------------------------------------|
B|---------------------------------------------------------------------------|
G|-5~------7~-----9~------12~------------------------------------------------|
D|---------------------------------------------------------------------------|
A|---------------------------------------------------------------------------|
D|---------------------------------------------------------------------------|

Altered Pre-Chorus
e|---------------------------------------------------------------------------|
B|---------------------------------------------------------------------------|
G|-555-777-999999-121212121212121212121212-----------------------------------|
D|-333-555-777777-101010101010101010101010-----------------------------------|
A|-333-555-777777-101010101010101010101010-----------------------------------|
D|-333-555-777777-101010101010101010101010-----------------------------------|

Outro Breakdown
e|---------------------------------------------------------------------------|
B|---------------------------------------------------------------------------|
G|---------------------------------------------------------------------------|
D|---------------------------------------------------------------------------|
A|---------------------------------------------------------------------------|
D|-7h8p7-5h77-5p33-2p00-8p77-5h77-5p33-2p00----------------------------------|

e|---------------------------------------------------------------------------|
B|---------------------------------------------------------------------------|
G|---------------------------------------------------------------------------|
D|-877-577-533-200-877-577-533-200-------------------------------------------|
A|-877-577-533-200-877-577-533-200-------------------------------------------|
D|-877-577-533-200-877-577-533-200-------------------------------------------|
Tap to rate this tab
# A B C D E F G H I J K L M N O P Q R S T U V W X Y Z