Song name
# A B C D E F G H I J K L M N O P Q R S T U V W X Y Z

Suede - Indian Strings tab

t. See http://www.olga.net/faq/ for more information.                     #
#-----------------------------------------------------------------------------#

From: AAuuddee@aol.com
Date: Sun, 2 Jan 2000 15:43:25 EST
Subject: s/suede/indian_strings.tab


INDIAN STRINGS (from the album "Head music" by SUEDE)
--------------
tabbed by AAuuddee@aol.com
                                     

NOTE: Sometimes it can be slightly different but it sounds all right.
Anyway you have to use the CD to get the good rythm.Hope you'll enjoy!
Don't hesitate to contact me if you need...

INTRO:
                                                                      
Dm                              Am                                (x3)
-------1-------3-----1-0h1p0--------------------------------0---------I
-----3---3---3---3------------3---------------------------1---1-0h1---I
---2-------2-------2--------------2---0-0h2-2---0-0h2-2-------------2-I
-0------------------------------2---2---------2---------2-------------I
----------------------------------------------------------------------I
----------------------------------------------------------------------I
                                                                      
Dm                              Am
-------1-------3-----1-3s5-0--------------------------------0---------I
-----3---3---3---3------------3---------------------------1---1-0h1---I
---2-------2-------2--------------2---0-0h2-2---0-0h2-2-------------2-I
-0------------------------------2---2---------2---------2-------------I
----------------------------------------------------------------------I
----------------------------------------------------------------------I

VERSE1:

Dm                              Am
-------1-------3-----1-0h1p0--------------------------------0---------I
-----3---3---3---3------------3---------------------------1---1-0h1---I
---2-------2-------2--------------2---0-0h2-2---0-0h2-2-------------2-I
-0------------------------------2---2---------2---------2-------------I
----------------------------------------------------------------------I
----------------------------------------------------------------------I

Dm                              Am
-------1-------3-----1-3s5-0--------------------------------0---------I
-----3---3---3---3------------3---------------------------1---1-0h1---I
---2-------2-------2--------------2---0-0h2-2---0-0h2-2-------------2-I
-0------------------------------2---2---------2---------2-------------I
----------------------------------------------------------------------I
----------------------------------------------------------------------I

C                           Dm                         F           
-------0-------------0------------1-------3s5-1-1------------1-----I
-----1---1---------1---1--------3---3---3---------0--------1---1---I
---0-------0-----0-------0----2-------2-------------0----2-------2-I
-2-----------2-2------------0--------------------------3-----------I
-------------------------------------------------------------------I
-------------------------------------------------------------------I

G                 Dm
-------3-1-0h1---------1-------3-----1-----0---I
-----0---------------3---3---3---3-----3-----3-I
---0---------------2-------2-------2-----2-----I
-0---------------0-----------------------------I
-----------------------------------------------I
-----------------------------------------------I

CHORUS:                             Am                              (x2)
------------------------------------------------------------0----------I
----10-------10-------10------10----------0-0h1-1-------1-3---3-0h3p0--I
--------------------------------------2-----------2---2----------------I
-12----12-11----11-10----10-9----9--2---2-----------2------------------I
-----------------------------------------------------------------------I
-----------------------------------------------------------------------I

VERSE2:same as verse1

BRIDGE: C  Dm I-3--1--0----I(x2)
              I-3--3--3----I
              I-2--2--2----I
              I------------I
              I------------I
              I------------I

C  Am  Dm I-3-----1-----0---I
          I---3-----3-----3-I
          I-----2-----2-----I
          I-----------------I
          I-----------------I
          I-----------------I
C                           Dm                         F          
-------0-------------0------------1-------3s5-1-1------------1-----I
-----1---1---------1---1--------3---3---3---------0--------1---1---I
---0-------0-----0-------0----2-------2-------------0----2-------2-I
-2-----------2-2------------0--------------------------3-----------I
-------------------------------------------------------------------I
-------------------------------------------------------------------I

 G             Dm                             F           G               =

----3-1-0h1-3--------1-------3-----1---3s5-0-------1-----------3-1-0h1-3-I
---0---------------3---3---3---3-----3-----------1---1-------0-----------I=
--0--------------2-------2-------2-------------2-------2---0-------------I=
-0-------------0-----------------------------3-----------0---------------I=
-------------------------------------------------------------------------I=
-------------------------------------------------------------------------I=

Dm
-------1-------1-3s5----I
-----3---3---3-------2--I
---2-------2------------I
-0----------------------I
------------------------I
------------------------I

CHORUS

THEN PLAY THIS:                     Am
-------------------------------------------------------------3p0------I
----10-------10-------10------10-----------0-0h1-1-------1-3-----3p0--I
--------------------------------------2------------2---2--------------I
-12----12-11----11-10----10-9----9--2---2------------2----------------I
----------------------------------------------------------------------I
----------------------------------------------------------------------I
                                    Am
----------------------------------------------------------------------I
----10-------10-------10------10----------0-0h1-1-------1p0-----------I
--------------------------------------2-----------2---2-----2p0-------I
-12----12-11----11-10----10-9----9--2---2-----------2------------2----I
----------------------------------------------------------------------I
----------------------------------------------------------------------I
Dm


 ENJOY!!
Tap to rate this tab
# A B C D E F G H I J K L M N O P Q R S T U V W X Y Z