Song name
# A B C D E F G H I J K L M N O P Q R S T U V W X Y Z

Suede - New Generation tab

Skid Row-New Generation-Thickskin

Tuning-
E A D G B e

Intro-Guitar 1

e----------------------------------------------------|
B----------------------------------------------------|
G----------------------------------------------------|
D---3/6----------------------------------------------|
A---3/6---x-x-(-pick slide)-x-x-(pick slide)---------|
E---------x-x-(-pick slide)-x-x-(pick-slide)---------|

Guitar 2 (after guitar 1 has done intro 4 times)

e-----------------------------------------------------|
B-----------------------------------------------------|
G-----------------------------------------------------|
D--3/6------------------------------------------------|
A--3/6-7-6-6-5-5-4------------------------------------|
E-----0---0---0---------------------------------------|
      *   *   *
Guitars 1 & 2

e--------------------------------------------------------|
B--------------------------------------------------------|
G--------------------------------------------------------|
D--xxxxx-xxxxx-xxxxx xx-3/6------------------------------|
A--xxxxx-xxxxx-xxxxx-xx-3/6------------------------------|
E--xxxxx-xxxxx-xxxxx-xx----------------------------------|

I SOLD MY SOUL FOR YOU!

pre-chorus(havent figured this out yet sorry)

Chorus

e-----------------------------------------------------------------------|
B-----------------------------------------------------------------------|
G-----------------------------------------------------------------------|
D--0-3-0-3-0-0-6-6-66-5-0-3-0-3-0-0-6-6-66-5-0-3-0-3-0-0-6--6-5-3-0-----|
A--0-3-0-3-0-0-6-6-66-5-0-3-0-3-0-0-6-6-66-5-0-3-0-3-0-0-6--6-5-3-0-----|
E-----------------------------------------------------------------------|

Where all part of a new generation

Intro riff
verse
pre chorus
chorus


and thats basically it

thats my first tab woo go me XD
Tap to rate this tab
# A B C D E F G H I J K L M N O P Q R S T U V W X Y Z