Song name
# A B C D E F G H I J K L M N O P Q R S T U V W X Y Z

Suede - New Generation tab

t. See http://www.olga.net/faq/ for more information.                     #
#-----------------------------------------------------------------------------#

From: AAuuddee@aol.com
Date: Tue, 18 Jan 2000 15:33:54 EST
Subject: s/suede/new_generation.tab


NEW GENERATION BY SUEDE
-----------------------
from the album DOG MAN STAR (94)


TABBED BY AAuuddee@aol.com


NOTE:While this tab is played,a second guitar plays the chords.
It is sometimes acoustic and sometimes electric...
Hope you'll enjoy!!


INTRO:

  F#                              Ab
------------------------------------------------------------------
--7--7--6--6--4--7--7--7--6h7--4--7--7--6--6--4-------------------
------------------------------------------------5--5--5--5--6--8--
------------------------------------------------------------------
------------------------------------------------------------------
------------------------------------------------------------------

  F#                              Ab               Ab       F# Ab
------------------------------------------------------------------
--7--7--6--6--4--7--7--7--6h7--4--7--7--6--6--4-------------------
------------------------------------------------5--5--5--5--3--5--
---------------------------------------------------6--6--6--4--6--
---------------------------------------------------6--6--6--4--6--
---------------------------------------------------4--4--4--2--4--


VERSE1:

  C#5                            Ab5                =20
------------------------------------------------------------------
--6--6--4h6--7--6--6--6--4h6--7--7--7--6--6--4----------7--6--4---
-----------------------------------------------5--5--3s-----------
------------------------------------------------------------------
------------------------------------------------------------------
------------------------------------------------------------------

  Bbm5                                 F#5
-----------------------------------------------4--5--4--2--
--6--6--4h6--7--6--6--6--4h6--(7)--7--7--7-----------------
--------------------------------------------6-------------- (x2)
-----------------------------------------------------------
-----------------------------------------------------------
-----------------------------------------------------------


PRE-CHORUS:same as the intro


CHORUS1:

  C#(9/11/11/10xx)           F =20
----------------------------------------------------------------
----------------------------------------------------------------
--10--11--13--11--10--8--10-------2h3--5--3--2------------------
-----------------------------3--3--------------3--3--1---1--3---
-------------------------------------------------------3--------
----------------------------------------------------------------

  Bbm                              F#m
-----6------6--------8---9--8------------------------
-------6------6----6---6------6------2b-----2b--4b---
---------6------6---------------6s---2b-----2b--4b--- (x2)
--8--------------------------------4-----4-----------
-----------------------------------------------------
-----------------------------------------------------


POST-CHORUS:

  F#  Ab  F#  Ab
--2---4---2---4--
--2---4---2---4--
--3---5---3---5--
--4---6---4---6--
-----------------
-----------------


VERSE2:

 C#5      Ab5  Ab5 A5  Ab5 Bbm5             F#5  =20
-----------------------------------------------2--2--4--2---
--------------------------------------9--------2--2--2--2---
-------------------------------6--8b9---8b9-----------------
----------------6---7---8--6h8--------------4---------------
----------------6---7---8-----------------------------------
----------------4---5---6-----------------------------------

  C#5 Ab5 Ab5 A5  Bb5  Bbm5 F#5 (chords played by the 2nd guitar)
  C#  Ab  Ab5 A5  Bb5  Bbm  F#
--9---4----------------6----2--
--9---4----------------6----2--
--10--5----------------6----3--
--11--6---6---7---8----8----4--
----------6---7---8----8-------
----------4---5---6----6-------


PRE-CHORUS: same as the intro


CHORUS2: same as chorus1 the 1st time but play this the 2nd time:

  C#(9/11/11/10xx)          F
--------------------------------------------------------------
--------------------------------------------------------------
--10--11--13--11--10--8--10------2h3--5--3--2-----------------
----------------------------3--3--------------3--3--1---1--3--
------------------------------------------------------3-------
--------------------------------------------------------------

  Bbm                      F#m  =20
--------------------------------------------
-----------------------------2b-----2b--4b--
---------6--8b9---6--6-------2b-----2b--4b--
--8--6h8--------8------8s--4-----4----------
--------------------------------------------
--------------------------------------------


POST-CHORUS:

  F#  Ab  F#  Ab
--2---4---2---4--
--2---4---2---4--
--3---5---3---5--
--4---6---4---6--
--4---6---4---6--
--2---4---2---4--

OUTRO:

  F#                                     Ab =20
------2-----2--2-----2-----2--2-----2--------4-----4--4-----4---
--2h4---2h4------2h4---2h4------2h4---2--4h6---4h6------4h6-----
----------------------------------------------------------------
----------------------------------------------------------------
----------------------------------------------------------------
----------------------------------------------------------------

                    F#               =20
------4--4-----4---------9------9--9------9------9--9------9----
--4h6------4h6---4--9h11---9h11------9h11---9h11------9h11---9--
----------------------------------------------------------------
----------------------------------------------------------------
----------------------------------------------------------------
----------------------------------------------------------------

  Ab
--------11-------11--11--------11--11--10--10--9---9---8--------
--11h13----11h13--------11h13--13--13--12--12--11--11--10-------
----------------------------------------------------------------
----------------------------------------------------------------
----------------------------------------------------------------
----------------------------------------------------------------

   F#(2443xx)                        Ab(4665xx)
(----------------------------------------------------------------
(------------------------------------7--7--9---9---7--7--9---9---
(------6---6h8--6---------------6----6--6--8---8---6--6--8---8---
(--6h8---8---------6b--6b--6--8---8--8--8--10--10--8--8--10--10--
(----------------------------------------------------------------
(----------------------------------------------------------------

        F#(2443xx)                       Ab(4665xx)
-------------------------------------------------------6--6-----
--8--8-----------------------------------7--7--9---9---7--7-----
--7--7------6---6h8--6--------------6----6--6--8---8---6--6-----
--9--9--6h8---8--------6b--6b--6--8---8--8--8--10--10--8--8-----
----------------------------------------------------------------
----------------------------------------------------------------


--8----8---7--7--)
--9----9---8--8--) (x2)
--8----8---7--7--)
--10---10--9--9--)
-----------------)
-----------------)

  F#(2443xx)         Ab(4665xx)         F#(2443xx)       Ab(2443xx)     =20
-----------------------------------------------------------------
--7--6--4--2--1-------------------------7--6--4--2--1------------
----------------3--1----------------------------------3--1-------
---------------------4--3--1------1--3---------------------4--3--
-----------------------------4--4--------------------------------
-----------------------------------------------------------------

                          F#
--------------------------2--
--------------------------2--
--------------------------3--
--3--3--3--3--3--3--3--2--4--
-----------------------------
-----------------------------


THE END!!!
Tap to rate this tab
# A B C D E F G H I J K L M N O P Q R S T U V W X Y Z