Song name
# A B C D E F G H I J K L M N O P Q R S T U V W X Y Z

Suede - Sound Of The Street Solo tab

#

Date: Sat, 10 Jan 1998 03:58:15 +0800
From: Randee 
Subject: TAB: Sound of the street by Suede
 
 "Sound of the Street" - By Suede.
 From album : sci-fi lullabies
 CD Time : 2'38 - 3'12
 Transcribed By Randee ( s5831347@cc.hwh.edu.tw )
 
e-----------------------------------------------9-11---11/13-13-11----
B-9-9----------11-----------14----------------9------9----------------
G-----8-----------11-8---------13-11~------10-------------------------
D-------10-6/8~--------8/11~---------11-11----------------------------
A---------------------------------------------------------------------
E---------------------------------------------------------------------

e---------------------------------------------------------------------
B-14-13~--------------------------------------------------------------
G----------13-11-------------11-------11-------11-13b15-15-15-15-15b13
D-------13-------13~13-11h13----11h13----11h13------------------------
A---------------------------------------------------------------------
E---------------------------------------------------------------------

e-------------------------11----------11/13-11------------------------
B-------14-13-11-------------14-13~------------14~13-14----13----11---
G-11-------------13-10/11~---------11~------------------10----10------
D----13~--------------------------------------------------------------
A---------------------------------------------------------------------
E---------------------------------------------------------------------

e---------------------------------------------------------------------
B-------------11b13b11----------14b16b14-13~13-14-13----14-13----14---
G-10-13----------------13-11~11----------------------13-------13------
D-------13-13---------------------------------------------------------
A---------------------------------------------------------------------
E---------------------------------------------------------------------

e---------------------------------------------------------------------
B-13----14-13----14-13------------------------------------------------
G----13-------13-------13---------------------------------------------
D-------------------------13~~~---------------------------------------
A---------------------------------------------------------------------
E---------------------------------------------------------------------
Tap to rate this tab
 
# A B C D E F G H I J K L M N O P Q R S T U V W X Y Z