Song name
# A B C D E F G H I J K L M N O P Q R S T U V W X Y Z

Suede - The Wild Ones tab

This is an awesome acoustic intro to a great song. Please rate, cheers.
D.Barlow

-12---0--0-------0---------0--0-0-0---------0-5-5H7P5-4-4-----4---5---4--0-0-|
-12---0--0-------0---------0--0-0-0---2--2--0-0-0-----0-0-----0---0-0-0--0-0-|
-----------1H2H3---1-------1--1-2-3---2--2------------6-6---6-6-6-6-6-6--6-0-|
------------------------------2-------2--2--------------7---7---7-7-7-7--7---|
----2----------------2---2----2----------0------------------0----------------|
----0----------------0-------------------------------------------------------|


-2--2--2-4-2-0----0-0--5---4--0-0------0--0-------0--------0--0------------|
-2--2--2-2-2-2----2-0--0-0-0--0-0------0--0-0--0--0--------0--0------------|
-2--2--2-2-2-2----2-0--6-6-6--------1-------1H2H3---1------1---------------|
-4--4------0-2--2-2-0--7-7-7--------2-------2---------2-2-----------2------|
-------------0--0-0----0------------2-----------------2-2--------2H4-2H4-2-|
------------------------------------0-----------------0-0--------0---------|


----0--0-0-0-0--0-0--0-5-4-0-7--5--4--5--0-2-2-2-2----0--0-0-5---4-0-0--|
----0--0-0-0-0--2-2--0-0-0-0-0--0--0--0--0-2-2-2-2----2--2-0-0-0-0-0-0--|
----1--1-2-2-1--2-2----6-6-6-6--6--6--6--6-2-2-2-2----2--2-0-6-6-6-6-6--|
------2------2--2-2----7-7-7-7--7--7--7--7-4-4------0-2--2-0-7-7-7-7-7--|
-2----2---------0-0----------0-----0--0--0----------0-0--0--------------|
-0----0-----------------------------------------------------------------|


----0-----------0------------------|
----0-----------0------------------|
-------1H2-3-1---------------------|
--------------------------2--4H6-4-|
-2--------------------2H4----------|
-0---------------------------------|
Tap to rate this tab
 
# A B C D E F G H I J K L M N O P Q R S T U V W X Y Z