Song name
# A B C D E F G H I J K L M N O P Q R S T U V W X Y Z

Suede - We Are The Pigs tab

t. See http://www.olga.net/faq/ for more information.                     #
#-----------------------------------------------------------------------------#

From: AAuuddee@aol.com
Date: Wed, 19 Jan 2000 11:22:53 EST
Subject: s/suede/we_are_the_pigs.tab


WE ARE THE PIGS By Suede
------------------------
From the album DOG MAN STAR (94)

TABBED BY AAuuddee@aol.com

This is a really interesting and nice song to play along.
If you have any requests or questions, please let me know...


INTRO: an acoustic guitar plays this tab in the same time

-----6----------------------------------
-------7--6-----------------9--7--------
------------8--6-----------------6---8-- (x3)
-----------------8--6--6s8---------8----
--6-------------------------------------
----------------------------------------

                    Ab
--6-----------------4--
----7--6------------4--
---------8--6-------5--
--------------8--6--6--
--------------------6--
--------------------4--


VERSE1:
             Ab  F#                    Ab
------------------------------------------
--4--2h4-------------------4--2h4---------
---------3s5--5--3---(x3)---------3s5--5--
--------------6--4---------------------6--
--------------6--4---------------------6--
--------------4--2---------------------4--


CHORUS1:

-------------------------------------------------------------
-------7h9--7--7------7--6---6--6--6h7--6---------7h9--7--7--
--8--8-----------6---------8--------------8--8--8------------
-------------------8-----------------------------------------
-------------------------------------------------------------
-------------------------------------------------------------

------------------------------------
-------7--6---7s8b9--8b9--11--9--8--
--6---------8-----------------------
----8-------------------------------
------------------------------------
------------------------------------

While this is played, a second guitar plays these chords:

B / F# / Bbm / Ebm / F# / Ab


VERSE2:

--6--5s6--6--8--6--6--------6--5s6--6--8--
--7--6s7--7--9--7--7--(x3)--7--6s7--7--9--
------------------------------------------
------------------------------------------
------------------------------------------
------------------------------------------


CHORUS2: The second guitar plays these chords:

B / F# / Bbm / Ebm / F# / Ab (x2)

-------------------------------------------------------------
-------7h9--7--7------7--6---6--6--6h7--6---------7h9--7--7--
--8--8------------6--------8--------------8--8--8------------
--------------------8----------------------------------------
-------------------------------------------------------------
-------------------------------------------------------------

-------------------------------------------------------------
-------7--6-----6--6--7--9---7--6--4---------7h9--7--7-------
--6----------8--6--6--8--10--8--6----4--8--8-----------6-----
----8----------------------------------------------------8---
-------------------------------------------------------------
-------------------------------------------------------------

--------------------------------------------------------------
--7--6---6--6--6h7--6--------7--9b--9--7----------7s8b9--8b9--
-------8--------------8--6h8-------------8--6--8--------------
--------------------------------------------------------------
--------------------------------------------------------------
--------------------------------------------------------------

------------
--11--9--8--
------------
------------
------------
------------


SOLO:

------------------------------------------------------------------
--7---7-----------------------------------------------------------
----8-------------------------------------------------------------
--------6--4--6--4--6--6b--6b--6b--6p4---4h6p4--------------------
---------------------------------------6-------6--4--6--4h6--4h6--
------------------------------------------------------------------

------------------------------------------------------------------
----------------------7s9--9--9--7---7----------------------------
---------3--6--6s8--8--------------8---8--6--8--6--8--6--8--8s10--
----4--6----------------------------------------------------------
--6---------------------------------------------------------------
------------------------------------------------------------------
                                             =20
                                             2nd guitar*    =20
------------------------------------------------------------------
---------------------------------------------12--12s11--12s11-----
--10s11--11s13--13s15--15s18--20--20--18--15------------------11--
------------------------------------------------------------------
------------------------------------------------------------------
------------------------------------------------------------------

------------------------------------------------------------------
------------------------------------------------------------------
-----------------------11--11--10h8--10h8--6---6------------------
--11s13--11--11--11h13-----------------------8---8--6-------------
------------------------------------------------------9--6--4h6---
------------------------------------------------------------------

------------------------------------------------------------------
------------------------------------------------------------------
--------6-----------------------------------------6--6s8--8~s-----
--4--6b---6b--4---4---------6b7--6b7--6b7--6--4-------------------
----------------6---6--4--4---------------------6-----------------
------------------------------------------------------------------

*means that here guitar2 plays these chords:

B / F# / Bbm / Ebm / F# =20

B / F# / Bbm / Ebm=20


CHORUS3:

------------------------------------------------------------------
--------7h9--7--7------7--6---6--6--6h7--6---------7h9--7--7------
--8--8------------6---------8--------------8--8--8-----------6----
--------------------8------------------------------------------8--
------------------------------------------------------------------
------------------------------------------------------------------

------------------------------------------------------------------
--7--6----6--6--6--7--9---7--6-------------7h9--7--7-----7--6-----
-------8-----6--6--8--10--8--6--8--8--8--8-----------6--------8---
-------------------------------------------------------8----------
------------------------------------------------------------------
------------------------------------------------------------------

------------------------------------------------------------------
--6--6--6h7--6--------7--9--9b--9--7---------------7h9--7--7------
---------------8--6h8----------------8--6--8--8--8-----------6----
---------------------------------------------------------------8--
------------------------------------------------------------------
------------------------------------------------------------------

------------------------------------------------------------------
--9b10--9b10--9b10r9--7---14--14b16~-------7h9--7--7-----7--6-----
------------------------8-------------8--8-----------6--------8---
-------------------------------------------------------8----------
------------------------------------------------------------------
------------------------------------------------------------------

------------------------------------------------------------------
--6--6--6h7--6---------7h9--7--7-----7--6----6--6--6--7--9---7--6-
---------------8--8--8-----------6--------8-----6--6--8--10--8--6-
-----------------------------------8------------------------------
------------------------------------------------------------------
------------------------------------------------------------------

------------------------------------------------------------------
--4---------7h9--7--7-----7--6---6--6--6h7--6---------7h9--7--7---
----4--8--8-----------6--------8--------------8--8--8-------------
------------------------8-----------------------------------------
------------------------------------------------------------------
------------------------------------------------------------------

----------------
------7--6---6--
--6--------8----
----8-----------
----------------
----------------

The second guitar plays these chords:

B / F# / Bbm / Ebm / F# =20

B / F# / Bbm / Ebm (x4)


And a third guitar plays this at the beginning of the chorus3:

----------------------------------------------------
--16--16s18--18s16s14--10b11--10b11--10b11--10b11---
----------------------------------------------------
----------------------------------------------------
----------------------------------------------------
----------------------------------------------------


Hope you'll enjoy!!
Tap to rate this tab
# A B C D E F G H I J K L M N O P Q R S T U V W X Y Z