Song name
# A B C D E F G H I J K L M N O P Q R S T U V W X Y Z

Suede - Positivity chords

Highlighted       Show chord diagrams
Tabbed by: willianrm

Listen to the song for the rhythm
Intro (there's an acoustic overdub):

15--10--------11--11---|
--13--13-11h13--13--13-|
-----------------------|
-----------------------|
-----------------------|
-----------------------|

-3--------------|
---1-4-1---4-4--|
--------3h5-5-5-|
----------------|
----------------|
----------------|

Verse
-4..-6..-6s8--x8--6---4-|
-4..-6..-6s8--x8--6-4-4-|
-5..-6..-6s8--x8--6-5-5-|
-6..-8..-8s10-x10-8-6-6-|
-6..-8..----------------|
-4..-6..----------------|

G#                 A#m       Cm A#m (fast)
You say what you want to say
Your diamonds are drops of rain
Your smile is your credit card
G#                   A#m  C#
Your currency is your love

C#                D#
And the morning is for you
And the air is free
C#                     Cm
And the birds sing for you
          A#m         G#  A#m
And your positivity

You play where you want to play
On the main streets where the creeps all prey
And you can feel like you're in dynasty
You could be what you want to be

And the morning is for you
And the air is free
And the birds sing for you
And your positivity

And the cars crash for you
And the sunshine is free
And the sirens call you

Yes, the morning is for you
Yes, the air is free
Yes, the world spins for you
And your positivity
Positivity
Tap to rate this tab
 
# A B C D E F G H I J K L M N O P Q R S T U V W X Y Z