Song name
# A B C D E F G H I J K L M N O P Q R S T U V W X Y Z

Suede - Asbestos tab

Song: Asbestos
Artist: Suede
Album: Head Music
Year: 1999
Tabber beranger80@hotmail.com
Tuning: Eb Bb Gb Db Ab Eb



Riff 1 (0:10)
Eb--------------------------------|
Bb------------5-----7--3--3--3----|
Gb------------5-----7--4--4--4----|
Db---5--6--7-----7----------------|
Ab--------------------------------|
Eb--------------------------------|x4



Riff 2 (0:29)
Eb---------2---------2----------2-----0---0------|
Bb---------3---------3----------3-----0---0------|
Gb---------2---------2----------2-----1---4------|
Db---------0---------0----------0-----2---0------|
Ab---2b-0-----2b-0-------2b-0---------2---2------|
Eb------------------------------------0---0------|x2



Riff 3 (1:10) with riff 2 Simpified
Eb----------------------------|
Bb----------------3--3--3-----|
Gb----------------4--4--4-----|
Db----2---0-2-5---------------|
Ab----------------------------|
Eb----------------------------|x4

Riff 2 shortened (1:10 too)
Eb--------2---------2----------2-----------2------|
Bb--------3---------3----------3-----------3------|
Gb--------2---------2----------2-----------2------|
Db--------0---------0----------0-----------0------|
Ab---2b-0-----2b-0-------2b-0--------2b-0---------|
Eb------------------------------------------------|



Riff 4 (1:31)
Eb---5-----8-7-----------|
Bb-------------5---8-5---|
Gb-----------------------|
Db-----------------------|
Ab-----------------------|
Eb-----------------------|x4



Riff 2 without bend (1:50)
Eb--------2---------2----------2-----0---0------|
Bb---(1)--3--(1)----3---(1)----3-----0---0------|
Gb---(2)--2--(2)----2---(2)----2-----1---4------|
Db---(2)--0--(2)----0---(2)----0-----2---0------|
Ab----0-------0----------0-----------2---2------|
Eb-----------------------------------0---0------|



2:10 Riff 1 x3



Break (2:25)
Eb----0---0-----|
Bb----0---0-----|
Gb----1---4-----|
Db----2---0-----|
Ab----2---2-----|
Eb----0---0-----|



2:30 Riff 1 + Riff 2 shortened

2:55 Riff 4

3:06 Riff 2 without bend

3:25 Riff 1 x3 + Riff 2



After Riff x3 on E Em of the Riff 2 (3:41)
Eb--------------------------|
Bb----------------3--3------|
Gb----------------4--4------|
Db----2-2--0-2----0---------|
Ab-----------2--------------|
Eb--------------------------|x4



3:45 Riff 1 + Riff 2 shortened

4:37 Riff 1 + Riff 2 shortened + Riff 4
Tap to rate this tab
# A B C D E F G H I J K L M N O P Q R S T U V W X Y Z