Song name
# A B C D E F G H I J K L M N O P Q R S T U V W X Y Z

Suede - This World Needs A Father tab

Tune down half a step.
Played clean but with a little gain, most of this song is arpegiated in the following sequence.

'Hold on, he's coming'...

G/Bminor/A/Bminor/C/D/C/D

'Anthem for the world, let it waltz you down the river'

Gx2/C/D

The next change isn t picked out just strummed
'Cos drink, to you, is all I can do'

F/Fminor/C/Aminor
F/Fminor/D

Repeat from start

Ending, Ive just picked main guitar cos BB just goes mad adding tracks a la marr. 
roll tone right off add fuzz, overdrive etc.


---15------------14--14-14-15-17-15--------14--14-14-15-17-|// slide to....
-----------------------------------------------------------|
-------14-16-17--------------------14-16-17----------------|
-----------------------------------------------------------|
-----------------------------------------------------------|
-----------------------------------------------------------|


--------------------------------------------------|
12-12-12-12-13-12-10-12-10-8---8-8---10h.o12p.o10-|
-----------------------------9--------------------|
--------------------------------------------------|
--------------------------------------------------|
--------------------------------------------------|

---------------------------------------------10--|
12-12-12-12-13-12-10-12-10-8---8-8---10h.o12-----|
-----------------------------9-------------------|
-------------------------------------------------|
-------------------------------------------------|
-------------------------------------------------|


--------------------------------------------------|
12-12-12-12-13-12-10-12-10-8---8-8---10h.o12p.o10-|
-----------------------------9--------------------|
--------------------------------------------------|
--------------------------------------------------|
--------------------------------------------------|

---------------------------------------------10--|
12-12-12-12-13-12-10-12-10-8---8-8---10h.o12-----| play final triplet x4
-----------------------------9-------------------|
-------------------------------------------------|
-------------------------------------------------|
-------------------------------------------------|

--------14                      14--14--15-17-15-|
13--15----  play x 3    end on  -----------------|
----------                      -----------------|
----------                      -----------------|
----------                      -----------------|
----------                      -----------------|

The only recording I got of this is casette copy of the 7" so, while I think its right 
keys especially in the drink to you bit might be wrong. Love this track even if it is a 
rip of rocknroll suicide.
Tap to rate this tab
# A B C D E F G H I J K L M N O P Q R S T U V W X Y Z