Song name
# A B C D E F G H I J K L M N O P Q R S T U V W X Y Z

Suffocation - Creed Of The Infidel tab

* - Artificial Harmonic
~~ - vibrato
/ - slide up
\ - slide down

obs: some slides may be whah-whah effects, I don't know, I don't have a whah-whah :) .
|---------------------------------------------------------------|
|-----------------------------------------------------------19*-|
|---------------------------10-13-13/16-16\14-14/19-18~~-16-----|
|-/12-11h12p11h12p11----/11-------------------------------------|
|--------------------12-----------------------------------------|
|---------------------------------------------------------------|

|-----------------------| \
|-----------------------| |
|-{---------18-------}--| > 8x
|-{18-19-21----21-19-}--| |
|-----------------------| |
|-----------------------| /

|------------------------------------------|
|-/19~~-18~---------------------------------|
|----------16------------------/16-/18-/19-|
|--------------/15-16-16/18-18^------------|
|------------------------------------------|
|------------------------------------------|

|--------------------------------------------------------------------|
|--------------------------------------------------------------------|
|-14-16-18-16-14-----------------------------------------------------|
|----------------18-16-14-11---11h12p11h12p11h12p11-9h10p9h10p9h10p9-|
|--------------------------------------------------------------------|
|--------------------------------------------------------------------|

|--------------------------------------------------------|
|--------------------------------------------------------|
|-----------------------------/13-13^-11-----------13*^--|
|-7h8p7h8p7h8p7-6h7p6h7p6h7p6-------------\5-1-4\--------|
|--------------------------------------------------------|
|--------------------------------------------------------|
Tap to rate this tab
# A B C D E F G H I J K L M N O P Q R S T U V W X Y Z