Song name
# A B C D E F G H I J K L M N O P Q R S T U V W X Y Z

Suffokate - Slaughter Your Enemies chords

TP = Tremolo Picking
 * = Pinch Harmonic
 + = Natural Harmonic
 ^ = Bend
Palm mutes - Pretty much all the open notes, if not they're easy to figure out.
 ~ = Let Note Ring out
 / = Slide
x = Dead Note

Drop B


                0:00  -  0:13
|-------------------------|
|-------------------------|
|-------------------------| Repeat    x3
|-0~~--0-00-3-1-00-3-1----|
|-0~~--0-00-3-1-00-3-1-/5-|
|-0~~--0-00-3-1-00-3-1----|


                0:14 - 0:24
 |----------------------------------------------------------|
 |----------------------------------------------------------|
 |----------------------------------------------------------|
 |-0-00-3-1-00-3-1-5*-0-00-3-1-00-3-0----0-00-3-1-00-3-1-5*-|
| -0-00-3-1-00-3-1----0-00-3-1-00-3-0-5\-0-00-3-1-00-3-1----|
 |-0-00-3-1-00-3-1----0-00-3-1-00-3-0----0-00-3-1-00-3-1----|


                0:25 - 0:32
 |-------------------------------------------------------------------------|
 |-------------------------------------------------------------------------|
 |-------------------------------------------------------------------------|
 |-0-00-3-1-00-3-1----0-00-3-1-00-3-1-5*-----------------------------------|
 |-0-00-3-1-00-3-1-5\-0-00-3-1-00-3-1--------------------------------------|
 |-0-00-3-1-00-3-1----0-00-3-1-00-3-1--------------------------------------|

                0:33 - 0:45
 |--------------------------|
 |--------------------------|
 |-------------------TP-----|
 |---0112211-003311-5555----| x3. Last time instead of TP 5555... Pinch 5*
 |---0112211-003311---------|
 |---0112211-003311---------|
 Listen for rhythm.

               0:46 - 0:53
|-------------------------------------------|
|-------------------------------------------|
|-------------------------------------------|
|--0-00-3-1-00-3-1----0-00-3-1-00-3-1-5*----|
|--0-00-3-1-00-3-1-5\-0-00-3-1-00-3-1-------|
|--0-00-3-1-00-3-1----0-00-3-1-00-3-1-------|

                0:54 - 1:00
 |--------------------------------------------------------------------------|
 |--------------------------------------------------------------------------|
 |--------------------------------------------------------------------------|
 |-0-00-3-1-00-3-1----0-00-3-1-00-3-1---------------------------------------|
 |-0-00-3-1-00-3-1-5\-0-00-3-1-00-3-1-5\------------------------------------|
 |-0-00-3-1-00-3-1----0-00-3-1-00-3-1---------------------------------------|


                1:01 - 1:05
 |-------------------------------------------------------------------------|
 |-------------------------------------------------------------------------|
 |-------------------------------------------------------------------------|
 |-3333333/5555/11-0-00000-00000-00000-00000-------------------------------|
 |-3333333/5555/11-0-00000-00000-00000-00000-------------------------------|
 |-3333333/5555/11-0-00000-00000-00000-00000-------------------------------|


                1:06 - 1:10
 |-------------------------------------------------------------------------|
 |-------------------------------------------------------------------------|
 |-------------------------------------------------------------------------|
 |-3333333/5555/11-0-00000-00000-00000-0-----------------------------------|
 |-3333333/5555/11-0-00000-00000-00000-0-----------------------------------|
 |-3333333/5555/11-0-00000-00000-00000-0-----------------------------------|

                1:11 - 1:15
 |-------------------------------------------------------------------------|
 |-------------------------------------------------------------------------|
 |-------------------------------------------------------------------------|
 |-3333333/5555/11-0-00000-00000-00000-00000-------------------------------|
 |-3333333/5555/11-0-00000-00000-00000-00000-------------------------------|
 |-3333333/5555/11-0-00000-00000-00000-00000-------------------------------|

                1:16 - 1:19
|-------------------------------------------------------------------------|
|-------------------------------------------------------------------------|
|-------------------------------------------------------------------------|
|-3333333/5555/11-0-00000-00000-00000-------------------------------------|
|-3333333/5555/11-0-00000-00000-00000-------------------------------------|
|-3333333/5555/11-0-00000-00000-00000-------------------------------------|

                1:20 - 1:27
|---------------------------------------------------------------------------|
|---------------------------------------------------------------------------|
|---------------------------------------------------------------------------|
|--0-00000-00000-00000----0-00000-00000-00000----0-00000-00000-00000--------|
|--0-00000-00000-00000-5+-0-00000-00000-00000-5+-0-00000-00000-00000-5+-----|
|--0-00000-00000-00000----0-00000-00000-00000----0-00000-00000-00000--------|

                1:28 - 1:37
|---------------------------------------------------------------------------|
|---------------------------------------------------------------------------|
|---------------------------------------------------------------------------|
|--0-00000-00000-00000----0-00000-00000-00000----0-00000-00000-00000--------|
|--0-00000-00000-00000-5+-0-00000-00000-00000-5+-0-00000-00000-00000-5+-----|
|--0-00000-00000-00000----0-00000-00000-00000----0-00000-00000-00000--------|

                1:38 - 1:44
|-------------------------------------------------------------------------|
|-------------------------------------------------------------------------|
|-------------------------------------------------------------------------|
|-0-00000-00000-00000-0-00000-00000-00000---------------------------------|
|-0-00000-00000-00000-0-00000-00000-00000---------------------------------|
|-0-00000-00000-00000-0-00000-00000-00000---------------------------------|


               1:45 - 1:55
|----------------------------------------------------------------------------|
|----------------------------------------------------------------------------|
|----------------------------------------------------------------------------|
|--0-00000-00000-00000-0-00000-00000-00000----0~- 0--------------------------|
|--0-00000-00000-00000-0-00000-00000-00000----0~- 0--3*----------------------|
|--0-00000-00000-00000-0-00000-00000-00000----0~- 0----5*-3*-----------------|

              1:55 - 2:09
|--------------------------|
|--------------------------|
|--------------------------|
|--00112211-00331155-------|
|--00112211-00331155-------|
|--00112211-00331155-------|
x3 End the fourth time on and open 5 and 3 chord,you know what im talkin about.

                  2:10 - 2:16
|-------------------------------------------------------------------------|
|-------------------------------------------------------------------------|
|-------------------------------------------------------------------------|
|-0-00-3-1-00-3-00-1-0-00-3-1-00-3-00-------------------------------------|
|-0-00-3-1-00-3-00-1-0-00-3-1-00-3-00-5\----------------------------------|
|-0-00-3-1-00-3-00-1-0-00-3-1-00-3-00-------------------------------------|


              2:17 - 2:24
|-------------------------------------------------------------------------|
|-------------------------------------------------------------------------|
|-------------------------------------------------------------------------|
|-0-00-3-1-00-3-00-1-0-00-3-1-00----00------------------------------------|
|-0-00-3-1-00-3-00-1-0-00-3-1-00-5*-00-3*---------------------------------|
|-0-00-3-1-00-3-00-1-0-00-3-1-00----00------------------------------------|


BREAKDOWN
2:24 - 2:51
|-------------------|
|-------------------|
|-------------------|
|--00-0000-0000-000-| x6 and end on and hold open 0.
|--00-0000-0000-000-|
|--00-0000-0000-000-|

Sick buildup,

2:51 - 3:05
|---------------------------|
|---------------------------|
|---------------------------|
|--------------xxxxx--------|   x4
|--------------xxxxx--------|
|-2~111-2~111--xxxxx--------|

3:05 - 3:19
|---------------------------|
|---------------------------|
|---------------------------|
|-2~111-2~111--xxxxx--------| x4
|-2~111-2~111--xxxxx--------|
|-2~111-2~111--xxxxx--------|


3:19 - 3:33
|---------------------------|
|---------------------------|
|---------------------------|
|--------------xxxxx--------|   x4
|--------------xxxxx--------|
|-2~111-2~111--xxxxx--------|

SLAUGHTER YOU ENEMIES.
3:33 - 3:45
|--------------------------|
|--------------------------|
|--------------------------|
|--00112211-00331155-------|  x4
|--00112211-00331155-------|
|--00112211-00331155-------|

3:45- I'll explain it below.
|-----------------------------------------------------|
|-----------------------------------------------------|
|-----------------------------------------------------|
|---000000000000-111111111111-444444-111111-----------|
|---000000000000-111111111111-444444-111111-----------|
|---000000000000-111111111111-444444-111111-----------|

Guitar 2 holds out these chords open for how many beats the PMs go.
then after this just use the same chords hit the PMs different and then
hold out 4 and 1.

I can't really figure out that solo with the wah setting on
all's i know is turn the wah setting on. The notes he plays with the wah on
i guess the first part are in the 3 - 5 frets? then the next part in the 6 - 8
if ya figure it out send me it at dandicriscia@yahoo.com i'll be glad to fix the tab.
other than that i pretty much just took the tab before me, finished it and made it
the right tuning (drop B). Oh and end on an open 0.

Thank youu rate it and blah you know what to do :)
Tap to rate this tab
# A B C D E F G H I J K L M N O P Q R S T U V W X Y Z