Suffokate - Constant Urge To Kill tab

Figured out by ear, 100% sure im right.
Tuning is Drop B
im not gonna write down early single note, you can figure out how many times you need to 
stuff through the song
Key- *-palm mute


Intro/Verse
----------------------------------------------------------------------|
----------------------------------------------------------------------|
----------------------------------------------------------------------|
-3-7-4-1         -0----------(-444-3333-00003-00003-444-3333-7777-----|  )repeat
-3-7-4-1xwhatever-0xwhatever-(-444-3333-00003-00003-444-3333-7777x----| x2
-3-7-4-1         -0----------(-444-3333-00003-00003-444-3333-7777-----|  )
       *          *                   ****  ****             **

First Breakdown
-----------------------------------|
-----------------------------------|
---------------chords in backround-|
-3-7-4-1-------3-4-3-7-------------|
-3-7-4-1-------3-4-3-7-------------|
-3-7-4-1-0x?  -3-4-3-7-------------|
         *

Verse
-----------------------------------------------------------------------|
-----------------------------------------------------------------------|
-----------------------------------------------------------------------|
444-3333-00003-00003-444-3333-7777-444-3333-00003-00003-444-3333-4-3-1-|
444-3333-00003-00003-444-3333-7777-444-3333-00003-00003-444-3333-4-3-1-|
444-3333-00003-00003-444-3333-7777-444-3333-00003-00003-444-3333-4-3-1-|
         ****  ****                         ****  ****

2nd/3rd Breakdown
-------------------------------|
-------------------------------|
-------------------------------|
-3-7-4----------3-3323-4-0---0-|
-3-7-4-0--------3-3323-4-0---0-|
-3-7-4-1x?------3-3323-4-0---0-|x?
       *          ****       *

Verse
------------------------------------------|
------------------------------------------|
------------------------------------------|
-4-1----4-3-7-4-3-4-0000-4-3-7-4-3-4-0000-|
-4-1----4-3-7-4-3-4-0000-4-3-7-4-3-4-0000-|
-4-1----4-3-7-4-3-4-0000-4-3-7-4-3-4-0000-|
                    ****             ****
4th Breakdown
--------------|
--------------|
--------------|
-0----------0-|
-0----------0-|
-0----------0-|xrest of the song
            *
Tap to rate this tab
 
# A B C D E F G H I J K L M N O P Q R S T U V W X Y Z