Guitaretab - guitar tabs
Song name
# A B C D E F G H I J K L M N O P Q R S T U V W X Y Z

Suffokate - Skies Were Filled With Fire tab

                      THE SKIES WERE FILLED WITH FIRE
                                 Suffokate
                       (From The 2005 Album Oakland)


Transcribed by Jonathan Casper (confinedforever)

Gtr 1 & 2 - Tuning Drop B - (B F# B E G# C#)

/ - SLIDE UP TO          h - HAMMER ON
\ - SLIDE DOWN TO        p - PULL OF
~ - VIBRATO              * - PALM MUTE
" - TREMOLO PICKING     [] - ARTIFICAL HARMONIC


THE COOL INTRO WITH THE KID TALKING - 0:01 - 0:31


 0:32 - 0:46
 GTR 1
|------------------------------------------------------------|
|------------------------------------------------------------|
|------------------------------------------------------------|
|--0-------1--------------------0-----1--4--3----------------|
|--0-------1--------------------0-----1--4--3----------------|
|--0-------1--------------------0-----1--4--3----------------|

                                                   
 GTR 2
|------------------------------------------------------------|
|------------------------------------------------------------|
|------------------------------------------------------------|
|--0000000000---000--0000000000000000000---000--0000000000---|
|--0000000000---000--0000000000000000000---000--0000000000---|
|--0000000000---000--0000000000000000000---000--0000000000---|
   **********   ***  *******************   ***  **********

 0: 47 - 1:01
 GTR 1 & 2
|----------------------------------------------------------------------|
|----------------------------------------------------------------------|
|----------------------------------------------------------------------| x2
|--0000000000---000--0000000000000000000---000--000--------------------|
|--0000000000---000--0000000000000000000---000--000--5h8-----4h7-------|
|--0000000000---000--0000000000000000000---000--000------0-0-----0-0---|
   **********   ***  *******************   ***  ***

 1:02 - 1:04
 GTR 1 & 2
|------------|
|------------|
|------------|
|--0--4--3---|
|--0--4--3---|
|--0--4--3---|


 1:05 - 1:18
 GTR 1 & 2
|------------------------------------------------------------|
|------------------------------------------------------------|
|------------------------------------------------------------| x2
|--0--00-0-0-1-0-4-3-00-0--00-0-0-0--------------------------|
|--0--00-0-0-1-0-4-3-00-0--00-0-0-0----5h8p5h8p5-4h7p4h7p4---|
|--0--00-0-0-1-0-4-3-00-0--00-0-0-0-00-----------------------|
   *  ** * * * * * * ** *  ** * * * **

 1:19 - 1:32
 GTR 1 & 2
[BUT THIS TIME LET THE PALM MUTED NOTES RING]
|------------------------------------------------------------|
|------------------------------------------------------------|
|------------------------------------------------------------| x2
|--0--00-0-0-1-0-4-3-00-0--00-0-0-0--------------------------|
|--0--00-0-0-1-0-4-3-00-0--00-0-0-0----5h8p5h8p5-4h7p4h7p4---|
|--0--00-0-0-1-0-4-3-00-0--00-0-0-0-00-----------------------|
   *  ** * * * * * * ** *  ** * * * **

 1:33 - 1:52
 GTR 1 & 2
[THE FIRST TIME IS JUST ONE GUITAR AND THEN THE 2ND ONE COMES IN]
|-------------------------------------------------------------------|
|-------------------------------------------------------------------|
|-------------------------------------------------------------------| x3
|--0-6-5-----6-5------5-3-5-6-5-3-5--0-6-5-----6-5------6-5-6-8-6---|
|--0-6-5--8--6-5--6"--5-3-5-6-5-3-5--0-6-5--6--6-5--5"--6-5-6-8-6---|
|--0-6-5-----6-5------5-3-5-6-5-3-5--0-6-5-----6-5------6-5-6-8-6---|
   * * *     * *      * * *   * * *  * * *     * *      * * *

 1:53 - 2:20
 GTR 1 & 2
|----------------------------------------------------------------------|
|----------------------------------------------------------------------|
|----------------------------------------------------------------------|
|--5-5-5-5-5-5-5-5-5-6-6-6-6-5-5-6-5-5-5-5-5-5-5-5-5-8-8-8-8-6-6-6-6---|
|--5-5-5-5-5-5-5-5-5-6-6-6-6-5-5-6-5-5-5-5-5-5-5-5-5-8-8-8-8-6-6-6-6---|
|--5-5-5-5-5-5-5-5-5-6-6-6-6-5-5-6-5-5-5-5-5-5-5-5-5-8-8-8-8-6-6-6-6---|
     * *   * *   * *           * *   * *   * *   * *

 GTR 1 & 2                                             both sections x2
|------------------------------------------------|
|------------------------------------------------|
|------------------------------------------------|
|--5-5-5-5-5-5-5-5-5-6-6-6-6-5-5-6-3---0-6-5-1---|
|--5-5-5-5-5-5-5-5-5-6-6-6-6-5-5-6-3---0-6-5-1---|
|--5-5-5-5-5-5-5-5-5-6-6-6-6-5-5-6-3---0-6-5-1---|
     * *   * *   * *           * *     * * *

 2:11 - 2:20
[THIS IS PART JOINS THE RIFF ABOVE TOWARDS THE MIDDLE]
[AND U SHOULD BE ABLE TO FIGURE OU THE TREMOLO STRUMMING]
 GTR 1
|-----------------------------------------------------|
|-----------------------------------------------------|
|-----------------------------------------------------|
|-12"-13"-12"-10"-12"-13"-12"--8"--7"-8"-10"--8"-7"---|
|-----------------------------------------------------|
|-----------------------------------------------------|

 2:21 - 2:35
 GTR 1 & 2
|-------------------|
|-------------------|
|-------------------| x4
|--0000--00-00--0---|
|--0000--00-00--0---|
|--0000--00-00--0---|
   ****  ** **  *

 2:36 - 2:57
 GTR 1 & 2
|--------------------------|
|--------------------------|
|--------------------------| x6
|--00000000--000--00-0-0---|
|--00000000--000--00-0-0---|
|--00000000--000--00-0-0---|
   ********  ***  ** * *

2:43 - 2:57
[THIS PART JOINS IN AT THE 3RD TIME WITH THE RIFF ABOVE]
 GTR 1
|-----------------------------------------------------|
|-----------------------------------------------------|
|-----------------------------------------------------|
|-----------------------------------------------------|
|-10"-13"-12"----10"-13"-15"-13"-12"----13"-12"-10"---|
|-------------12"--------------------12"--------------|
[ Tab from: http://www.guitaretab.com/s/suffokate/81146.html ]
|--------------------------------|
|--------------------------------|
|--------------------------------|
|--12"-13"-12"-----12"-13"-12"---|
|--------------15"---------------|
|--------------------------------|

 2:58 - 3:08
 GTR 1 & 2
|----------------------------------------------------------|
|----------------------------------------------------------|
|-------10--9--7-------7--9--10----------------------------| x2
|--000--x---x--x--000--x--x--x-----------------------------|
|--000--8---7--5--000--5--7--8--------------5h8---4h7------|
|--000------------000------------8"-10"-7"------0------0---|
   ***            ***                           *      *

 3:09 - 3:19
 GTR 1 & 2
|------------------------------------------|
|------------------------------------------|
|-------10--9--7-------7--9--10------------| x2
|--000--x---x--x--000--x--x--x---8--10-7---|
|--000--8---7--5--000--5--7--8---8--10-7---|
|--000------------000------------8--10-7---|
   ***            ***

 3:20 - 3:25
 GTR 1 & 2
|-------------------|
|-------------------|
|-------------------|
|--0----------------|
|--0----------------|
|--0---pick scrap---|

 3:26 - 3:36
 GTR 1 & 2
|---------------------------------------------------------------|
|---------------------------------------------------------------|
|---------------------------------------------------------------| x2
|--0--0-0-0-0-0-0--8-0-0-5--5-0--1--1-1-1-1-1-1--4-0-0-3--3-0---|
|--0--0-0-0-0-0-0--8-0-0-5--5-0--1--1-1-1-1-1-1--4-0-0-3--3-0---|
|--0--0-0-0-0-0-0--8-0-0-5--5-0--1--1-1-1-1-1-1--4-0-0-3--3-0---|
      * * * * * *    * *      *     * * * * * *    * *      *

 3:37 - 3:50
 GTR 1
|---------------------------|
|---------------------------|
|---------------------------|
|---------------------------|
|---------------------------|
|--0"--8"--5"--1"--4"--3"---|

 GTR 2
|----------------------------|
|----------------------------|
|----------------------------|
|----------------------------|
|------13"-10"-----10"-13"---|
|--12"---------13"-----------|

 3:51 - 3:59
 GTR 1 & 2
|---------------|
|---------------|
|---------------|
|--0--------0---|
|--0--------0---|
|--0--------0---|

 4:00 - 4:16
 GTR 1 & 2
|---------------------------------------------------------------------|
|---------------------------------------------------------------------|
|---------------------------------------------------------------------| x4
|--0-0-0-0-0-0-0-0-0-0-0-0-0-0-0-0-0-0-0-0-0-0-0-0-0-0-0-0-0-0-0-0-0--|
|--0-0-0-0-0-0-0-0-0-0-0-0-0-0-0-0-0-0-0-0-0-0-0-0-0-0-0-0-0-0-0-0-0--|
|--0-0-0-0-0-0-0-0-0-0-0-0-0-0-0-0-0-0-0-0-0-0-0-0-0-0-0-0-0-0-0-0-0--|
     * *   * *   *   * * * * * * * * *   * *   * *   * * * * * * * *

 4:17 - 4:19
 GTR 1 & 2
|------|
|------|
|------|
|--0---|
|--0---|
|--0---|
   *

 4:20 - 4:57
 GTR 1 & 2
|------------------------|
|------------------------|
|------------------------| x8
|-0000000000---0000000---|
|-0000000000---0000000---|
|-0000000000---0000000---|
  **********   *******

 4:39 - 4:57
[THIS PART JOINS IN THE 5TH TIME IN THE RIFF ABOVE]
 GTR 1
|----------------------------------------|
|----------------------------------------|
|--7--/9/10--/12\-10-------5/-7\--3/-5---|
|--x--/x/x---/x-\-x--------x/-x\--x/-x---|
|--5--/7/8---/10\-8--8h10--3/-5\--1/-3---|
|----------------------------------------|
 [AND NOW PLAY BELOW]
 GTR1
|------------------------------------------------|
|------------------------------------------------|
|---------------12"------------------------------|
|---12"-14"-15"----15"-14"-15"-14"-12"-----12"---|
|--------------------------------------15"-------|
|------------------------------------------------|

 4:58 - 5:19
 GTR 1 & 2
|-----------------------------------------------------|
|-----------------------------------------------------|
|-----------------------------------------------------| x2
|--5-5-5-5-5-5-5-5-5-5--x2--1-1-1-1-1-1-1-1-1-1--x2---|
|--5-5-5-5-5-5-5-5-5-5------1-1-1-1-1-1-1-1-1-1-------|
|--5-5-5-5-5-5-5-5-5-5------1-1-1-1-1-1-1-1-1-1-------|
   * * * * * *              * * * * * *
 [AND NOW PLAY BELOW]
 GTR 1 & 2
|----------------------------------------------------------------------|
|----------------------------------------------------------------------|
|----------------------------------------------------------------------|
|--5-5-5-5-5-5-5-5-5-5--x2--1-1-1-1-1-1-1-1-1-1--x2--8-8-8-8-6-6-6-6---|
|--5-5-5-5-5-5-5-5-5-5------1-1-1-1-1-1-1-1-1-1------8-8-8-8-6-6-6-6---|
|--5-5-5-5-5-5-5-5-5-5------1-1-1-1-1-1-1-1-1-1------8-8-8-8-6-6-6-6---|
   * * * * * *              * * * * * *              * * *   * * *

 5:20 - 5:34
 GTR 1
|-----------------------------------------------------|
|-----------------------------------------------------|
|-----------------------------------------------------| x2
|--5-5-5-5-5-5-5-5-5-5--x2--1-1-1-1-1-1-1-1-1-1--x2---|
|--5-5-5-5-5-5-5-5-5-5------1-1-1-1-1-1-1-1-1-1-------|
|--5-5-5-5-5-5-5-5-5-5------1-1-1-1-1-1-1-1-1-1-------|
   * * * * * *              * * * * * *
          [PLAY TOGETHER]
 GTR 2
|---------------------------|
|---------------------------|
|---------------------------|
|---------------------------|
|--13"-12"-13"-15"-9"-10"---|
|---------------------------|

 5:35 - 5:49
 GTR 1
|-----------------------|
|-----------------------|
|-----------------------|
|--5--5--5----1--1--1---| x2
|--5--5--5----1--1--1---|
|--5--5--5----1--1--1---|
        [PLAY TOGETHER]
 GTR 2
|--------------------------------------------------------------|
|-----------13-------------------------------------------------|
|--15-14h15----15h17-15-14-12----------------------------------| x2
|------------------------------16-16h17p16-17-16h17p16-14------|
|---------------------------------------------------------18---|
|--------------------------------------------------------------|

 5:50
 GTR 1 & 2
|------|
|------|
|------|
|--5---|
|--5---|
|--5---|

so ya i love suffokate and no ones bothered to put anything up so here it is, one of 
best songs!!!!!!!!!!!! Please rate and comment on how i did!!!! ENJOY!

- jonathan
Related for Skies Were Filled With Fire tab
×
Skies Were Filled With Fire