Song name
# A B C D E F G H I J K L M N O P Q R S T U V W X Y Z

Suffokate - Slaughter Your Enemies tab

Alright I only got parts of this song. However I have most of the whole song, But I'll
up the song timming with the tabs I have so you can follow and what isnt there I'll put
later or maybe you could find out what it is. Then Email it to me.I'm trying to get a 
of the harder bands out there for tabs I love Hardcore music and enough of it isnt out
Soon I'll have some Acacia Strain shit up, Winds of Plague, and a bunch others.

 * = Pinch Harmonic
 + = Natural Harmonic
 \ = Bend
 - = Palm Mute
 ~ = Let Note Ring out
 / = Slide

Drop D will do the trick for this, no need for any lower
This is my first tab. I'm pretty sure its 100% Right
If you think something should be different Email me at SsensesxFail187@aol.com


                0:00  -  0:13
e |---------------------------------------------------------------------------|
B |---------------------------------------------------------------------------|
G |---------------------------------------------------------------------------|
d |-0~~--0-00-3-0-00-3-0----0-00-3-0-00-3-0----0-00-3-0-00-3-0----------------|
A |-0~~--0-00-3-0-00-3-0-5\-0-00-3-0-00-3-0-5\-0-00-3-0-00-3-0-5\-------------|
D |-0~~--0-00-3-0-00-3-0----0-00-3-0-00-3-0----0-00-3-0-00-3-0----------------|
           --     --          --     -----------------------------------------|

                0:14 - 0:24
e |-------------------------------------------------------------------------|
B |-------------------------------------------------------------------------|
G |-------------------------------------------------------------------------|
d |-0-00-3-0-00-3-0-5*-0-00-3-0-00-3-0----0-00-3-0-00-3-0-5*----------------|
A |-0-00-3-0-00-3-0----0-00-3-0-00-3-0-5\-0-00-3-0-00-3-0-------------------|
D |-0-00-3-0-00-3-0----0-00-3-0-00-3-0----0-00-3-0-00-3-0-------------------|
      --     --          --     --          --     --

                0:25 - 0:32
e |---------------------------------------------------------------------------|
B |---------------------------------------------------------------------------|
G |---------------------------------------------------------------------------|
d |-0-00-3-0-00-3-0----0-00-3-0-00-3-5*---------------------------------------|
A |-0-00-3-0-00-3-0-5\-0-00-3-0-00-3------------------------------------------|
D |-0-00-3-0-00-3-0----0-00-3-0-00-3------------------------------------------|
      --     --          --     ----------------------------------------------|

                0:33 - 0:45
e |-------------------------------------------------------------------------|
B |-------------------------------------------------------------------------|
G |-------------------------------------------------------------------------|
d |-0112211-00331155-00112211-00331155-00112211-00331155-00112211-00331155--|
A |-0112211-00331155-00112211-00331155-00112211-00331155-00112211-00331155--|
D |-0112211-00331155-00112211-00331155-00112211-00331155-00112211-00331155--|
     ------ -------- -------- -------- -------- -------- -------- --------
 Note:Listen for rythem with these palm mutes.`

               0:46 - 0:53
e |---------------------------------------------------------------------------|
B |---------------------------------------------------------------------------|
G |---------------------------------------------------------------------------|
d |-0-00-3-0-00-3-0----0-00-3-0-00-3-0-5*-------------------------------------|
A |-0-00-3-0-00-3-0-5\-0-00-3-0-00-3-0----------------------------------------|
D |-0-00-3-0-00-3-0----0-00-3-0-00-3-0----------------------------------------|
      --     --          --     ----------------------------------------------|

                0:54 - 1:00
e |---------------------------------------------------------------------------|
B |---------------------------------------------------------------------------|
G |---------------------------------------------------------------------------|
d |-0-00-3-0-00-3-0----0-00-3-0-00-3-0----------------------------------------|
A |-0-00-3-0-00-3-0-5\-0-00-3-0-00-3-0-5\-------------------------------------|
D |-0-00-3-0-00-3-0----0-00-3-0-00-3-0----------------------------------------|
      --     --          --     ----------------------------------------------|

                1:01 - 1:05
e |-------------------------------------------------------------------------|
B |-------------------------------------------------------------------------|
G |-------------------------------------------------------------------------|
d |-3333333/5555/11-0-00000-00000-00000-00000-------------------------------|
A |-3333333/5555/11-0-00000-00000-00000-00000-------------------------------|
D |-3333333/5555/11-0-00000-00000-00000-00000-------------------------------|
                    - ----- ----- ----- -----

                1:06 - 1:10
e |-------------------------------------------------------------------------|
B |-------------------------------------------------------------------------|
G |-------------------------------------------------------------------------|
d |-3333333/5555/11-0-00000-00000-00000-0-----------------------------------|
A |-3333333/5555/11-0-00000-00000-00000-0-----------------------------------|
D |-3333333/5555/11-0-00000-00000-00000-0-----------------------------------|
                    - ----- ----- ----- -

                1:11 - 10:15
e |-------------------------------------------------------------------------|
B |-------------------------------------------------------------------------|
G |-------------------------------------------------------------------------|
d |-3333333/5555/11-0-00000-00000-00000-00000-------------------------------|
A |-3333333/5555/11-0-00000-00000-00000-00000-------------------------------|
D |-3333333/5555/11-0-00000-00000-00000-00000-------------------------------|
                    - ----- ----- ----- -----

                1:16 - 1:19
e |---------------------------------------------------------------------------|
B |---------------------------------------------------------------------------|
G |---------------------------------------------------------------------------|
d |-3333333/5555/11-0-00000-00000-00000---------------------------------------|
A |-3333333/5555/11-0-00000-00000-00000---------------------------------------|
D |-3333333/5555/11-0-00000-00000-00000---------------------------------------|
                    - ----- ----- --------------------------------------------|

                1:20 - 1:27
e |-------------------------------------------------------------------------|
B |-------------------------------------------------------------------------|
G |-------------------------------------------------------------------------|
d |-0-00000-00000-00000----0-00000-00000-00000----0-00000-00000-00000-------|
A |-0-00000-00000-00000-9+-0-00000-00000-00000-9+-0-00000-00000-00000-9+----|
D |-0-00000-00000-00000----0-00000-00000-00000----0-00000-00000-00000-------|
    - ----- ----- -----    - ----- ----- -----    - ----- ----- -----

                1:28 - 1:37
e |-------------------------------------------------------------------------|
B |-------------------------------------------------------------------------|
G |-------------------------------------------------------------------------|
d |-0-00000-00000-00000----0-00000-00000-00000----0-00000-00000-00000-------|
A |-0-00000-00000-00000-9+-0-00000-00000-00000-9+-0-00000-00000-00000-9+----|
D |-0-00000-00000-00000----0-00000-00000-00000----0-00000-00000-00000-------|
    - ----- ----- -----    - ----- ----- -----    - ----- ----- -----

                1:38 - 1:44
e |-------------------------------------------------------------------------|
B |-------------------------------------------------------------------------|
G |-------------------------------------------------------------------------|
d |-0-00000-00000-00000-0-00000-00000-00000---------------------------------|
A |-0-00000-00000-00000-0-00000-00000-00000---------------------------------|
D |-0-00000-00000-00000-0-00000-00000-00000---------------------------------|
    - ----- ----- ----- - ----- ----- -----

               1:45 - 1:52
e |-------------------------------------------------------------------------|
B |-------------------------------------------------------------------------|
G |-------------------------------------------------------------------------|
d |-0-00000-00000-00000-0-00000-00000-00000---------------------------------|
A |-0-00000-00000-00000-0-00000-00000-00000---------------------------------|
D |-0-00000-00000-00000-0-00000-00000-00000---------------------------------|
    - ----- ----- ----- - ----- ----- -----

              1:55 - 2:09
e |-------------------------------------------------------------------------|
B |-------------------------------------------------------------------------|
G |-------------------------------------------------------------------------|
d |-00112211-00331155-00112211-00331155-00112211-00331155-00112211-0030055--|
A |-00112211-00331155-00112211-00331155-00112211-00331155-00112211-0030055--|
D |-00112211-00331155-00112211-00331155-00112211-00331155-00112211-0030055--|
    -------- -------- -------- -------- -------- -------- -------- -------

              2:10 - 2:16
e |-------------------------------------------------------------------------|
B |-------------------------------------------------------------------------|
G |-------------------------------------------------------------------------|
d |-0-00-3-0-00-3-00-5-0-00-3-0-00-3-00-------------------------------------|
A |-0-00-3-0-00-3-00-5-0-00-3-0-00-3-00-5\----------------------------------|
D |-0-00-3-0-00-3-00-5-0-00-3-0-00-3-00-------------------------------------|
      --     --   --     --     --   --

              2:17 - 2:24
e |-------------------------------------------------------------------------|
B |-------------------------------------------------------------------------|
G |-------------------------------------------------------------------------|
d |-0-00-3-0-00-3-00-5-0-00-3-0-00----00------------------------------------|
A |-0-00-3-0-00-3-00-5-0-00-3-0-00-3\-00-5\---------------------------------|
D |-0-00-3-0-00-3-00-5-0-00-3-0-00----00------------------------------------|
      --     --   --     --     --    --

BREAKDOWN

e |-------------------------------------------------------------------------|
B |-------------------------------------------------------------------------|
G |-------------------------------------------------------------------------|
d |-00-0000-0000-000-00-0000-0000-000-00-0000-0000-000----------------------|
A |-00-0000-0000-000-00-0000-0000-000-00-0000-0000-000----------------------|
D |-00-0000-0000-000-00-0000-0000-000-00-0000-0000-000----------------------|


e |-------------------------------------------------------------------------|
B |-------------------------------------------------------------------------|
G |-------------------------------------------------------------------------|
d |-00-0000-0000-000-00-0000-0000-000-00-0000-0000-000-0~~------------------|
A |-00-0000-0000-000-00-0000-0000-000-00-0000-0000-000-0~~------------------|
D |-00-0000-0000-000-00-0000-0000-000-00-0000-0000-000-0~~------------------|

Alright thats it for now, I'll come back and put the ending parts in.
This is a pretty long song so I got this much down.
Enjoy.
Tap to rate this tab
# A B C D E F G H I J K L M N O P Q R S T U V W X Y Z