Song name
# A B C D E F G H I J K L M N O P Q R S T U V W X Y Z

Suffokate - Every Crisis Faced tab

Help us improve GuitareTab! Take a short survey!
Suffokate - Every Crisis Faced
Tuning : (high to low) C# , G# , E , B , F# , B

Slide to 3 and hold, you can even wiggle the string a bit to get the same sound as in 
song.
(I think the other guitar slides up to 5 but im not sure)
|-----|-----|(guitar one plays one note and guitar two plays the other)
|G1---|G2---|
|-----|-----|
|-/3--|-----|
|-----|-/5--|
|-----|-----|

The first riff is played by only one guitar and the first two notes of the riff are 
by the second
|------------------|
|------------------|
|------------------|
|------------------|
|-1-0--0-1-0-4-1-0-|
|-1-0--0-1-0-4-1-0-|

|------------------|
|------------------|
|------------------|
|------------------|
|-1-0--------------|
|-1-0--------------|

This riff is like the first but has two triplets every second time
|----------------------------------------|
|----------------------------------------|
|----------------------------------------|
|----------------------------------------|
|-1-0--0-1-0-4-1-0-1-0---------1-0-4-1-0-|
|-1-0--0-1-0-4-1-0-1-0-000-000-1-0-4-1-0-|

A little filler riff, based off of the first two riffs (play it twice)
|--------------------------------------|
|--------------------------------------|
|--------------------------------------|
|----------------------------1-0-4-1-0-|
|---------1-0-4-1-0----------1-0-4-1-0-|
|-000-000-1-0-4-1-0-000--000-----------|

Back to this riff
|----------------------------------------|
|----------------------------------------|
|----------------------------------------|
|----------------------------------------|
|-1-0--0-1-0-4-1-0-1-0---------1-0-4-1-0-|
|-1-0--0-1-0-4-1-0-1-0-000-000-1-0-4-1-0-|

I don't know if this riff is 100% right,
but it might help you to figure it out on your own.
|-------------------------------------|
|-------------------------------------|
|-------------------------------------|
|-------------5-3-0-------------------|
|-----5h6p5-3-----------5h6p5-3-1-----|
|-0-0---------------3-3-----------1-1-|

I think this is close....
|---------------------------------|
|---------------------------------|
|---------------------------------|
|-----2-1-----1-2-1-2-----8\7-8\7-|
|-----2-1-----1-2-1-2-----6\5-6\5-|
|-0-0-----0-0---------0-0---------|


Same as above, but keep hitting the low B
(lissin to the song to get it right)
|---------------------------------|
|---------------------------------|
|---------------------------------|
|-----2-1-----1-2-1-2-----8\7-8\7-|
|-----2-1-----1-2-1-2-----6\5-6\5-|
|00000---00000-------00000--------|


Same as before, just play it slower
|---------------------------------------------------------|
|---------------------------------------------------------|
|---------------------------------------------------------|
|---------2---1-----------1---2---1---2----------8\7--8\7-|
|---------2---1-----------1---2---1---2----------6\5--6\5-|
|-0---0-----------0---0-------------------0---0-----------|


 Play this twice
|----------------------------------------------------------|
|----------------------------------------------------------|
|----------------------------------------------------------|
|-9p6p0-9p6p0-9p6p0-9p6p0-8p5p0-8p5p0-8p5p0-8p5p0----------|
|----------------------------------------------------------|
|----------------------------------------------------------|
(part of the above riff)
|-----------------------------------|
|-----------------------------------|
|-----------------------------------|
|-7p4p0-7p4p0-7p4p0-7p4p0-2-1-2-1---|
|-------------------------2-1-2-1---|
|-----------------------------------|


Same as the above riff just one string lower, play twice
|----------------------------------------------------------|
|----------------------------------------------------------|
|----------------------------------------------------------|
|----------------------------------------------------------|
|-9p6p0-9p6p0-9p6p0-9p6p0-8p5p0-8p5p0-8p5p0-8p5p0----------|
|----------------------------------------------------------|
(part of above riff)
|---------------------------------|
|---------------------------------|
|---------------------------------|
|-------------------------2-1-2-1-|
|-7p4p0-7p4p0-7p4p0-7p4p0-2-1-2-1-|
|---------------------------------|


Play this a few times
|---------------------------------|
|---------------------------------|
|---------------------------------|
|-----7---5-----8---5-------------|
|-----5---3-----6---3-----4---3-1-|
|-0-0---0---0-0---0---0-0-4-0-3-1-|


Play four times
|---------------------------------------------------|
|---------------------------------------------------|
|---------------------------------------------------|
|---------------------------------------------------|
|-----3h5p3h5-----5h6p5h6-----6h8p6h8-----8h10p8h10-|
|-0-0---------0-0---------0-0---------0-0-----------|

play this one four times (remember to keep the B open, its not palm muted)
|---------------------------------------------------|
|---------------------------------------------------|
|---------------------------------------------------|
|---------------------------------------------------|
|-----3h5p3h5-----5h6p5h6-----6h8p6h8-----8h10p8h10-|
|-000---------000---------000---------000-----------|


Each guitar plays something a little different...(first guitar)
|-----------------------------------------------------|
|-----------------------------------------------------|
|--------------------------------------------------10-|
|--------5-7--------7-8--------8-10--------12-10-8----|
|-----------------------------------------------------|
|-000000-----000000-----000000------000000------------|


(second guitar)
|---------------------------------------------------|
|---------------------------------------------------|
|---------------------------------------------------|
|------------------------------------------------8--|
|--------3-5--------5-6--------6-8--------10-8-6----|
|-000000-----000000-----000000-----000000-----------|


Play this till the end of the song,
there are a few timing changes for the riff,
but the notes are the same, just lissin to the song.

|------------------------------|
|------------------------------|
|------------------------------|
|-1-0-0---0-1-0-0-1-0-0--1-0-0-|
|-1-0-0---0-1-0-0-1-0-0--1-0-0-|
|------------------------------|

Please rate and/or correct
I'll try and put more tabs up when I can
Tabbed by: Chad C.
Related for Every Crisis Faced tab