Song name
# A B C D E F G H I J K L M N O P Q R S T U V W X Y Z

Sufjan Stevens - The One I Love Live tab

I love this cover of REM's song, and had a crack at tabbing it. It's probably not 100% 
but this is my first tab so cut me some slack :P

You can check out the video of Sufjan playing this here:
http://www.youtube.com/watch?v=K0UQdVppuss


Capo 9

Intro (play once):

  Em                  Dsus2
e|--------0-------------------0--------|
B|-----------0--0------3---------3--0--|
G|-------------0---------2---------2---|
D|-----2--------------(0)--0-----------|
A|---2---------------------------------|
E|-0-----------------------------------|


Verse and Chorus:

   Em                  Dsus2
e|--------0-------------------0---------|
B|-----------0--0------3---------3--3---|
G|-0-----------0---------2---------2--2-|
D|---2----------------(0)--0------------|
A|-2---2--------------------------------|
E|--------------------------------------|


   Em                  Dsus2
e|-------0-------------------0---------|
B|----------0--0------3---------3--0---|
G|------------0---------2---------2----|
D|-2-----------------(0)--0------------|         (repeat)
A|----2--------------------------------|
E|-0-----------------------------------|
Tap to rate this tab
 
# A B C D E F G H I J K L M N O P Q R S T U V W X Y Z