Song name
# A B C D E F G H I J K L M N O P Q R S T U V W X Y Z

Sufjan Stevens - Transfiguration tab

Song: The Transfiguration
Artist: Sufjan Stevens
Tabbed by: Plazaskater07

    V  V ^ V ^ V   V   V  V ^ V ^ V   V
e|--------------------------------------|
B|-----5-5-5-5-5---5--------------------|
G|-----6-6-6-6-6---6------4-4-4-4-4---4-|
D|-----6-6-6-6-6---6------4-4-4-4-4---4-|
A|--4--4-4-4-4-4---4---2--2-2-2-2-2---2-|
E|--------------------------------------|

    V  V ^ V ^ V   V   V  V ^ V ^ V   V
e|--------------------------------------|
B|--------------------------------------|
G|--------------------------------------|
D|-----9-9-9-9-9---9------7-7-7-7-7---7-|
A|-----9-9-9-9-9---9------7-7-7-7-7---7-|
E|--7--7-7-7-7-7---7---5--5-5-5-5-5---5-|
Tap to rate this tab
# A B C D E F G H I J K L M N O P Q R S T U V W X Y Z