Song name
# A B C D E F G H I J K L M N O P Q R S T U V W X Y Z

Sufjan Stevens - John Wayne Gacy Jr tab

			     John Wayne Gacy Jr.- Sufjan Stevens
-------------------------------------------------------------------------------
Tabbed by: veverica
Email: josip.kovaceviiic@gmail.com

Tuning: Standard

e|---------------------4-------------------------------4---------------------|
B|-------------6---------------6---------------6---------------6-------------|
G|-----5-------------------------------5-------------------------------------|
D|-3-------3-------3-------3-------3-------3-------3-------3-----------------|
A|---------------------------------------------------------------------------|
E|---------------------------------------------------------------------------|

e|-------------1---------------1---------------1---------------1-------------|
B|---------------------------------------------------------------------------|
G|-----3---------------3---------------3---------------3---------------------|
D|-1-------1-------1-------1-------1-------1-------1-------1-----------------|
A|---------------------------------------------------------------------------|
E|---------------------------------------------------------------------------|

e|---------------------------------------------------------------------------|
B|-------------4---------------4---------------4---------------4-------------|
G|-----3---------------3---------------3---------------3---------------------|
D|---------------------------------------------------------------------------|
A|-3-------3-------3-------3-------3-------3-------3-------3-----------------|
E|---------------------------------------------------------------------------|

e|---------------------------------------------------------------------------|
B|-------------4---------------4---------------4---------------4-------------|
G|-----3---------------3---------------3---------------3---------------------|
D|---------------------------------------------------------------------------|
A|---------------------------------------------------------------------------|
E|-4-------4-------4-------4-------4-------4-------4-------4-----------------|

It repeats through the whole song! Enjoy

Tap to rate this tab
 
# A B C D E F G H I J K L M N O P Q R S T U V W X Y Z