Song name
# A B C D E F G H I J K L M N O P Q R S T U V W X Y Z

Sufjan Stevens - Holland tab

Holland - - Sufjan Stevens
Tabbed by: Ben Watson

Note: not entirely sure if this same passage is repeated throughout the entire song, but 
should work.

Standard tuning
Capo on 6


h = hammer on
p = pull off

Guitar 1 (Left Ear)

e|-----------|------------|-----------|--0--------|-----------|
B|-----------|------------|-----------|-----------|-0---------|
G|--2----2--0|0-----2-----|--2----2---|-------2---|-----2-----|
D|--2--2-----|----2------0|-----0---0-|-----2----0|---3-----0-|
A|--0------0-|2--------0--|-----------|--4------4-|-3-----3---|
E|-----------|------------|--2------0-|-----------|-----------|

e|--------------|-----------|:----------------------------------------|
B|--0-----------|0----------|:----------------------------------------|
G|--2----2------|1----------|:----------------------------------------|
D|--2------2----|2----------|:----------------------------------------|
A|--------------|-----------|:----------------------------------------|
E|--0--0-----0--|0----------|:----------------------------------------|


Guitar 2 (right ear)

e|---------|--------|-----------|--0--------|-------------|
B|------3--|------3-|-------3p0-|-----------|--0----------|
G|--2--2---|-0h2----|--2--2-----|-------2---|-------2-----|
D|--2------|----2---|--2--------|-----------|-----------0-|
A|---------|--------|-----------|--4--4---4-|--3--3---3---|
E|---------|--------|-----------|-----------|-------------|


e|------------|---------|:--------------------------------------------|
B|--2----2----|--1------|:--------------------------------------------|
G|--2----2----|--2------|:--------------------------------------------|
D|--2----2----|--2------|:--------------------------------------------|
A|---------0--|---------|:--------------------------------------------|
E|--0--0------|---------|:--------------------------------------------|
Tap to rate this tab
 
# A B C D E F G H I J K L M N O P Q R S T U V W X Y Z