Sufjan Stevens - We Wont Need Legs To Stand tab

Sufjan Stevens - We Won't Need Legs to Stand

     Gm                         D
|------------|------------|------------|------------|
|----3-----3-|----3-----3-|----3-----3-|----3-----3-|
|--3-----3---|--3-----3---|--2-----2---|--2-----2---|
|------0-----|------0-----|------------|------------|
|------------|------------|------0-----|------0-----|
|3-----------|3-----------|2-----------|2-----------|

      F                         G
|------------|------------|------------|------------|
|----1-----1-|----1-----1-|----0-----0-|----0-----0-|
|--2-----2---|--2-----2---|--0-----0---|--0-----0---|
|------------|------------|------------|------------|
|0-----3-----|0-----3-----|------2-----|------2-----|
|------------|------------|3-----------|3-----------|

     F                          E
|------------|------------|------------|------------ ||
|------------|------------|------------|------------o||
|----2-----2-|----2-----2-|----1-----1-|----1-----1- ||
|--3-----3---|--3-----3---|--2-----2---|--2-----2--- ||
|------0-----|------0-----|------------|------------o||
|1-----------|1-----------|0-----4-----|0-----4----- ||

      A
|------------|------------|------------|------------|
|----2-----2-|----2-----2-|----2-----2-|----2-----2-|
|--2-----2---|--2-----2---|--2-----2---|--2-----2---|
|------2-----|------2-----|------2-----|------2-----|
|0-----------|0-----------|0-----------|0-----------|
|------------|------------|------------|------------|

      D
|------------|------------|------------|------------|
|----2-----2-|----2-----2-|----2-----2-|----2-----2-|
|--3-----3---|--3-----3---|--3-----3---|--3-----3---|
|------0-----|------0-----|------0-----|------0-----|
|0-----------|0-----------|0-----------|0-----------|
|------------|------------|------------|------------|

      F                         E
|------------|------------|------------|------------|
|----1-----1-|----1-----1-|----0-----0-|----0-----0-|
|--2-----2---|--2-----2---|--1-----1---|--1-----1---|
|------3-----|------3-----|------2-----|------2-----|
|------------|------------|------------|------------|
|1-----------|1-----------|0-----------|0-----------|

      A                         Am
|------------|------------|------------|------------|
|----3-----3-|----3-----3-|----2-----2-|----2-----2-|
|--3-----3---|--3-----3---|--3-----3---|--3-----3---|
|------3-----|------3-----|------3-----|------3-----|
|0-----------|0-----------|0-----------|0-----------|
|------------|------------|------------|------------|

      G                         F
|------------|------------|------------|------------|
|----0-----0-|----0-----0-|------------|------------|
|--0-----0---|--0-----0---|----2-----2-|----2-----2-|
|------0-----|------0-----|--3-----3---|--3-----3---|
|------------|------------|------3-----|------3-----|
|3-----------|3-----------|1-----------|1-----------|

      E
|------------|------------|
|------------|------------|
|----1-----1-|----1-----1-|
|--2-----2---|--2-----2---|
|------2-----|------2-----|
|0-----------|0-----------|

back to beginning, repeat once

end on A

note:  Sounds good with a banjo layered on top of the guitar and some type of droning 
during the second verse.
Tap to rate this tab
 
# A B C D E F G H I J K L M N O P Q R S T U V W X Y Z