Song name
# A B C D E F G H I J K L M N O P Q R S T U V W X Y Z

Sufjan Stevens - Futile Devices tab

The other tab for this song was removed for infringement so I'm just saying
THIS IS MY PERSONAL INTERPRETATION AND NOT INFRINGEMENT.

Standard Tuning

x-mute

Guitar:
e--12----------------12----12----------------12----12---------------12----11---------------9-----|
B-----10----------10----10----10----------10----10----10---------10----10----10---------10---10--|
G--------11----11----------------11----11----------------11---11----------------11---11----------|
D-----------11----------------------11----------------------9----------------------9-------------|
A------------------------------------------------------------------------------------------------|
E------------------------------------------------------------------------------------------------|


==================================================================================================

Piano/Guitar part:
-----4---x------4---x------4---x------2------|
-------5----------5----------5-------(4)-----|
---6----------6----------6----------4--------|
---------------------------------------------|
---------------------------------------------|
---------------------------------------------|

or you can play that same part like this:
----------x----------x-----------x------------|
------9----------9-----------9---------7------|
--------9----------9-----------9------(8)-----|
---11---------11----------11---------9--------|
----------------------------------------------|
----------------------------------------------|
(Strings are different so some may sound better muted one way or the other)

=================================================================================

This part is pretty hard to hear but comes in at 1:36
-----------------------------------------------------|
-------5---5-----------5---5-----------7---7---------|
-----4---4---4---4---4---4---4---4---4---4---4---4---|
---7-----------7---6-----------6---4-----------4-----|
-----------------------------------------------------|
-----------------------------------------------------|

Please Rate!
Tap to rate this tab
 
# A B C D E F G H I J K L M N O P Q R S T U V W X Y Z