Song name
# A B C D E F G H I J K L M N O P Q R S T U V W X Y Z

Sufjan Stevens - John Wayne Gacy Jr tab

--------------------------------------
Sufjan Stevens - "JOHN WAYNE GACY JR"
--------------------------------------
Tabbed by: Stas Styler
Tuning: Standard
Capo: 3rd fret


------1--------1---0--------------------------------------------------------|
----3-------3----3--------3-------3--3-3-0-1-----------1---0----------------|
--2------2--------------0------0-------------2-2-2-2-----------2----2--2----|
-0-0-0--0-0--0--------2------2----------------0-0-0----------------3--3-----|
---------------------3-3-3--3-3-3---3-3-0-0-0-------0-0-0-0-0-0---3--3------|
-----------------------------------------------------------------1------1-0-|
Dm                Cadd9                   Am                     F
Tap to rate this tab
# A B C D E F G H I J K L M N O P Q R S T U V W X Y Z