Song name
# A B C D E F G H I J K L M N O P Q R S T U V W X Y Z

Sufjan Stevens - The Predatory Wasp Of The Palisades Is Out To Get Us tab

-----------------------------------------------------------------------------


The Predatory Wasp of the Palisades is out to Get Us! Ė Sufjan Stevens

-----------------------------------------------------------------------------

Tabbed by: marisa.elliott
Email: m3lliott@gmail.com

Tuning:  Standard EADGBE

Iíve look at tabs and none of them seem to really work. This is my first tab, so I hope 
itís okay.

e|-------------0--------------0--------------0--------------0----------------|
B|---------------------------------------------------------------------------|
G|---------------------------------------------------------------------------|
D|-------9--------------9--------------6--------------6----------------------|
A|-7--7-----7-----7--7-----7-----4--4-----4-----4--4-----4-------------------|
E|---------------------------------------------------------------------------|

e|--------------0--------------0-----------------0---------------0-----------|
B|---------------------------------------------------------------------------|
G|---------------------------------------------------------------------------|
D|-------2---------------2----------------2----------------2-----------------|
A|-0--0-----0------0--0-----0------------------------------------------------|
E|----------------------------------2--2-----2-------2--2-----2-------2------|

After that you just repeat from the beginning.

************************************

| /   slide up
| \   slide down
| h   hammer-on
| p   pull-off
| ~   vibrato
| +   harmonic
| x   Mute note
| b   Bend
| pb  Pre-bend
| br  Bend release
| pbr Pre-bend release
| brb Bend release bend

************************************
Tap to rate this tab
# A B C D E F G H I J K L M N O P Q R S T U V W X Y Z