Song name
# A B C D E F G H I J K L M N O P Q R S T U V W X Y Z

Sufjan Stevens - For The Windows In Paradise For The Fatherless In Ypsilanti tab

-------------------------------------------------------------------------------
   For The Windows In Paradise For The Fatherless In Ypsilanti - Sufjan Stevens
-------------------------------------------------------------------------------
Tabbed by: Mason M.

Tuning: Standard

Capo 2

This is how he plays it on banjo arranged for guitar.

     Am             F               C            G
e|-0----0-0-0----0-1-1-1---1-1-1-1-0---0-0-0---0-0-0-0-1-1-0-0---------------|
B|-1----1-1-1----1-1-1-1---1-1-1-1-1---1-1-1---1-0-0-0-0-0-0-0---------------|
G|-2----2-2-2----2-2-2-0h2-2-2-2-2-0---0-0-0---0-0-0-0-0-0-0-0---------------|
D|-0h2--2-2-0h2--2-3-3-3---3-3-3-3-0h2-2-2-0h2-2-0-0-0-0-0-0-0---------------|
A|-0----0-0-0----0-3-3-3---3-3-3-3-3---3-3-3---3-2-2-2-2-2-2-2---------------|
E|---------------------------------------------------------------------------|

Use those chords throughout the song. Listen for strumming patterns.
Tap to rate this tab
 
# A B C D E F G H I J K L M N O P Q R S T U V W X Y Z