Song name
# A B C D E F G H I J K L M N O P Q R S T U V W X Y Z

Sufjan Stevens - The Dress Looks Nice On You tab

                          Capo on 8th Fret
                  Notes are relative to capo
part 1

e-------------------------------------|         
B------------------------3-----3------|          for part 1
G------0-------0-------0-----0--------|     every fourth time instead of fret
D----2---0-0h2----------------------0-|      3 on the low E to open on the D,
A--0-------------0--3------2----------|      its open low E to open D, as in
E---------------------------------3---|      
                                             D---0|
                                             A----|
                                             E-0--|
part 2
e-------------------0-----0---------|        
B---------------------3-----3-------|
G------0-------0--------0-----0-----|
D----2---0-0h2---------------------0|
A--0-------------0--3-----2---------|
E--------------------------------3--|




part 3
e----------------------0-----0--------|
B------------------------3-----3---3--|
G---------0-------0--------0-----0----|
D-----0h2---0-0h2--------------------0|
A--0h2--------------0--3-----2--------|
E-------------------------------------|


Hope you enjoy, listen to the song for changes, and you can add other open notes 
in while picking to make it sound more like the song,please rate what you think it deserves!
Tap to rate this tab
# A B C D E F G H I J K L M N O P Q R S T U V W X Y Z