Song name
# A B C D E F G H I J K L M N O P Q R S T U V W X Y Z

Sufjan Stevens - Abraham tab

-------------------------------------------------------------------------------
			     Abraham - Sufjan Stevens
-------------------------------------------------------------------------------
Tabbed by: drewbix
Email:

Sufjan Stevens is a singer/songwriter from Michigan who has moved to New York.
He has been featured on The OC.


Tuning: Standard

Capo 4th 
Finger picked


Intro/verse:

e|------------------------------------------------|
B|------------------------------------------------|
G|------0-----------------------------------------|
D|--2---------------0----------------0------------|
A|----------0---2-----------------0---------------|
E|-----------------------0---2-------------2------|

End of Intro:

e|-------------------------------------------|
B|-------------------------------------------|
G|-------------------------------------------|
D|----------0-------------0------------------|
A|------2-------------0----------------------|
E|--3-------------2------------------0-------|

Part w/ girl singing "ahhhs"

e|-------------------------------------------------|
B|-----------0-------------------------------------|
G|------0-------------------2----------------------|
D|--2-----------------0---------------------0------|
A|----------------2---------------------0----------|
E|--------------------------------2--------------2-|



| /  slide up
| \  slide down
| h  hammer-on
| p  pull-off
| ~  vibrato
| +  harmonic
| x  Mute note
=====================================================================
Tap to rate this tab
 
# A B C D E F G H I J K L M N O P Q R S T U V W X Y Z