Song name
# A B C D E F G H I J K L M N O P Q R S T U V W X Y Z

Sufjan Stevens - Dress Looks Nice On You tab

-----------------------------------------------------------------------------
                The Dress Looks Nice On You  - Sufjan Stevens
-----------------------------------------------------------------------------
Tabbed by: Haleth Son of Hama
Email: Halethsonofhama(at)gmail(dot)com

(NOTE: I tabbed this awhile ago to correct Drewbix’s version but I forgot to post it.
since then submitted one that is more accurate. I Used his “guitar 2” during the keyboard
because I hadn’t figured that out and BAM! The most extreme accurate “the dress looks 
on you” tab You’ll find… Ever…)
- - - - - - - - - - - - - - - - - - - - - - - - - - - - - -

Tuning: Standard
(Capo on 8: Tabbed relative to capo)


INTRO:
e|-----------------------------------------------------|
B|------------------------------3--------3-------------|
G|--------0----------0-------0--------0--------0-------|
D|-----2-----0--0h2------------------------------------|
A|--0-------------------0-3--------2-------------------|
E|------------------------------------------3----------| x4


VERSE:
e|-----------------------------------------------------|
B|------------------------------3--------3-------------|
G|--------0----------0-------0--------0--------0-------|
D|-----2-----0--0h2------------------------------------|
A|--0-------------------0-3--------2-------------------|
E|------------------------------------------3----------| x4

e|------------------------0--------0-------------------|
B|---------------------------3--------3-----3----------|
G|--------0----------0----------0--------0-----0-------|
D|-----2-----0--0h2------------------------------------|
A|--0-------------------0-3--------2-------------------|
E|------------------------------------------3----------| x4

e|-----------------------------------------------------|
B|------------------------------3--------3-------------|
G|--------0----------0-------0--------0--------0-------|
D|-----2-----0--0h2------------------------------------|
A|--0-------------------0-3--------2-------------------|
E|------------------------------------------3----------| x4

(Banjo enters)
e|-------------------------0--------0------------------|
B|----------------------------3--------3-----3---------|
G|---------0----------0----------0--------0-----0------|
D|-----0h2----0--0h2-----------------------------------|
A|-0h2-------------------0-3--------2------------------|
E|-------------------------------------------3---------| x8


This Next Part is Tricky, Its supposed to be done with 2 guitars (good luck doing it
one) ‘Guitar one’ has the bottom 3 strings and ‘Guitar 2’ has the top 3


When Keyboard enters:
E|--------------------------------------------------------------------|
B|---3---3---3---3---2---2---2---2---3---3---3---3---2---2---2---2----|
G|-0---0---0---0---0---0---0---0---0---0---0---0---0---0---0---0---0--|
D|-----2/3---2-0-------0h2----(0)------2/3---2-0-------0h2----(0)-----|
A|-1---------------0---------------1---------------0------------------|
E|--------------------------------------------------------------------|

E|--------------------------------------------------------------------|
B|---3---3---3---3---2---2---2---2---3---3---3---3---2---2---2---2----|
G|-0---0---0---0---0---0---0---0---0---0---0---0---0---0---0---0---0--|
D|-----2/3---2-0-------0h2----(0)------2/3---2-0-------0h2----(0)-----|
A|--------------------------------------------------------------------|
E|-1---------------0---------------1---------------0------------------|


VERSE:
e|-----------------------------------------------------|
B|------------------------------3--------3-------------|
G|--------0----------0-------0--------0--------0-------|
D|-----2-----0--0h2------------------------------------|
A|--0-------------------0-3--------2-------------------|
E|------------------------------------------3----------| x6

e|------------------------0--------0-------------------|
B|---------------------------3--------3-----3----------|
G|--------0----------0----------0--------0-----0-------|
D|-----2-----0--0h2------------------------------------|
A|--0-------------------0-3--------2-------------------|
E|------------------------------------------3----------| x4

ENDS WITH A Slow Strum of “Em”
E|-------------|
B|----(0)------|
G|----0--------|
D|---2---------|
A|--2----------|
E|-0-----------|
Tap to rate this tab
 
# A B C D E F G H I J K L M N O P Q R S T U V W X Y Z